Melody 1

(/) Slide Up  (\) Slide Down  (h) Hammer On  (p) Pull Off  (b) Bend (r) Release (v) Vibrato

E|-----------------------------------
B|-------------3--------6-----6--5v--
G|-------3--------3--------5---------
D|--3h5-----5--------5---------------
A|-----------------------------------
E|-----------------------------------



E|-----------------------------------
B|--6--------5--3---------6v---------
G|-----------------5b7b5-------------
D|-----------------------------------
A|-----------------------------------
E|-----------------------------------



E|----------------------------
B|--------------------3v------
G|------------3--5------------
D|--5------5------------------
A|----------------------------
E|----------------------------
http://www.guitartabcreator.com
Guitar Tab Creator is intended to store guitar tab created through the tool. It currently does not support in-line text editing. Any text you place in here will be lost. If you need to comment on your tab, please use the "Tab Notes" section located below.