DJVPOA

(/) Slide Up  (\) Slide Down  (h) Hammer On  (p) Pull Off  (b) Bend (r) Release (v) Vibrato


E|---------------------------------------------------------------------
B|---------------------------------------------------------------------
G|------15--14------17--15------15--14------14-------------------------
D|--17----------15----------17----------17------17--15--17--15---------
A|--------------------------------------------------------------15--13b
E|---------------------------------------------------------------------



E|-------------------------------------------------------------
B|-------------------------------------------------------------
G|--7--7--7--5--10--10--10--7--10--12--12--12--10--7--7--5--5--
D|--7--7--7--5--10--10--10--7--10--12--12--12--10--7--7--5--5--
A|--5--5--5--5--8---8---8---5--8---10--10--10--10--5--5--3--3--
E|-------------------------------------------------------------



E|-----
B|-----
G|-----
D|-----
A|-----
E|-----



E|--------------------------------------------------------
B|--------------------------------------------------------
G|--7----------10------------12----------7----------5--5--
D|--7----------10------------12----------7----------5--5--
A|--5----------8-------------10----------5----------3--3--
E|--------------------------------------------------------
http://www.guitartabcreator.com
Guitar Tab Creator is intended to store guitar tab created through the tool. It currently does not support in-line text editing. Any text you place in here will be lost. If you need to comment on your tab, please use the "Tab Notes" section located below.