1st idea

(/) Slide Up  (\) Slide Down  (h) Hammer On  (p) Pull Off  (b) Bend (r) Release (v) Vibrato


E|--------------------------------------
B|--------------------------------------
G|-----------3----5-------------3----5--
D|--5--------3----5----5--------3----5--
A|--5--------1----3----5--------1----3--
E|--3------------------3----------------



E|--3------------------3----------------
B|--3--------1----3----3--------1----3--
G|--3--------3----5----3--------3----5--
D|--5--------3----5----5--------3----5--
A|--5--------1----3----5--------1----3--
E|--3------------------3----------------



E|-----------------------------------------------
B|-----------------------------------------3-----
G|--------0--------0--------------3-----------5--
D|-----0--------0--------------3--------5--------
A|-----------------------0--1--------3-----------
E|--3--------3--------3--------------------------



E|--------------------------------------------
B|--------6-----------------------------------
G|--------------8--------------5-----------5--
D|-----8-----8--------------5-----3-----5-----
A|--6--------------6--5--3--------1--3--------
E|--------------------------------------------
http://www.guitartabcreator.com
Guitar Tab Creator is intended to store guitar tab created through the tool. It currently does not support in-line text editing. Any text you place in here will be lost. If you need to comment on your tab, please use the "Tab Notes" section located below.