Str Wars Imperial March

(/) Slide Up  (\) Slide Down  (h) Hammer On  (p) Pull Off  (b) Bend (r) Release (v) Vibrato


E|--------------------------------------------------------
B|--------------------------------------------------------
G|-----------------------------7--7--7--8-----------------
D|--5--5--5-----8--5-----8--5--------------8--------8--5--
A|-----------6--------6-----------------------9--6--------
E|--------------------------------------------------------



E|--------------------------------------------------------------------------
B|--8--------8--7--6--5--4--5-----------------------------------------------
G|--------------------------------6--5--4--3--2--3-----------------------7--
D|-----5--5--------------------6-----------------------5-----5--8--5--8-----
A|--------------------------------------------------6-----6-----------------
E|--------------------------------------------------------------------------



E|--------------------------------------------------------------------------
B|--8--------8--7--6--5--4--5-----------------------------------------------
G|--------------------------------6--5--4--3--2--3--------------------------
D|-----5--5--------------------6-----------------------5-----5--8-----8--5--
A|--------------------------------------------------6-----6--------6--------
E|--------------------------------------------------------------------------



E|--
B|--
G|--
D|--
A|--
E|--
http://www.guitartabcreator.com
Guitar Tab Creator is intended to store guitar tab created through the tool. It currently does not support in-line text editing. Any text you place in here will be lost. If you need to comment on your tab, please use the "Tab Notes" section located below.