Star Wars main theme

(/) Slide Up  (\) Slide Down  (h) Hammer On  (p) Pull Off  (b) Bend (r) Release (v) Vibrato


E|--------------------------6--------------6-----------------
B|--------------6--4--3--------6--4--3--------6--4--3--4-----
G|-----------3-----------5--------------5-----------------5--
D|--3--3--3--------------------------------------------------
A|-----------------------------------------------------------
E|-----------------------------------------------------------



E|------------------------------------------------
B|------------------4--3--------------3-----------
G|------------------------5--3--3--5-----5-----2--
D|--3--3--5------5--------------------------5-----
A|------------------------------------------------
E|------------------------------------------------



E|-------------------------------------
B|----------------4--3--------6--------
G|----------------------5--3-----5--5--
D|--3--3--5----5-----------------------
A|-------------------------------------
E|-------------------------------------



E|----------------------------------------------
B|----------------4--3--------------3-----------
G|----------------------5--3--3--5-----5-----2--
D|--3--3--5----5--------------------------5-----
A|----------------------------------------------
E|----------------------------------------------



E|--------6--4-----------------------
B|--6--6--------7--6--4-----------6--
G|-----------------------6--5--3-----
D|-----------------------------------
A|-----------------------------------
E|-----------------------------------
http://www.guitartabcreator.com
Guitar Tab Creator is intended to store guitar tab created through the tool. It currently does not support in-line text editing. Any text you place in here will be lost. If you need to comment on your tab, please use the "Tab Notes" section located below.