Princess Leia

(/) Slide Up  (\) Slide Down  (h) Hammer On  (p) Pull Off  (b) Bend (r) Release (v) Vibrato

E|---------------------------------------5--6--6p5-----------6--6--6--9--7p6-----
B|--------7--7--7/8--8p7--5--------7--7-------------8-------------------------9--
G|-------------------------------------------------------------------------------
D|--7--7---------------------7--7----------------------8--8----------------------
A|-------------------------------------------------------------------------------
E|-------------------------------------------------------------------------------



E|-----7--6----------------------6--------6------------------------5--
B|--9--------9--7--6h7--9--7--9-----6--6-----10p8--6--5h6--8--6h8-----
G|--------------------------------------------------------------------
D|--------------------------------------------------------------------
A|--------------------------------------------------------------------
E|--------------------------------------------------------------------
http://www.guitartabcreator.com
Guitar Tab Creator is intended to store guitar tab created through the tool. It currently does not support in-line text editing. Any text you place in here will be lost. If you need to comment on your tab, please use the "Tab Notes" section located below.