Take on me

(/) Slide Up  (\) Slide Down  (h) Hammer On  (p) Pull Off  (b) Bend (r) Release (v) Vibrato


E|---------------------------------------------------------------------------
B|---------------------------------------------------------------------------
G|---------------------------------------------------------------------------
D|---------------------------6--6--7--9--7--7--7-----------------------------
A|--9--9------------7--7--7-----------------------9--5--9--9--9--7--7--9--7--
E|--------10--7--7-----------------------------------------------------------



E|----------------------------------------------------------------------------------------------------
B|----------------------------------------------------------------------------------------------------
G|----------------------------------------------------------------------------------------------------
D|--12--12--12----12--12--12----9--9--9----9--9--9----11--11--11----11--11--11----7--7--7----7--7--7--
A|--12--12--12----12--12--12----9--9--9----9--9--9----11--11--11----11--11--11----7--7--7----7--7--7--
E|--10--10--10----10--10--10----7--7--7----7--7--7----9---9---9-----9---9---9-----5--5--5----5--5--5--
http://www.guitartabcreator.com
Guitar Tab Creator is intended to store guitar tab created through the tool. It currently does not support in-line text editing. Any text you place in here will be lost. If you need to comment on your tab, please use the "Tab Notes" section located below.