kjshfj

(/) Slide Up  (\) Slide Down  (h) Hammer On  (p) Pull Off  (b) Bend (r) Release (v) Vibrato (T) trill ended by *


Where the road leads
pardon the invasion
District Of Columbia
Joshua Elkins




intro
E D D E D C E D D A D E
E|---------2--0--|----------2--3--|--------3--2--------2----------|
B|---------3--3--|----------3--3--|--------3--3----2---3----------|
G|---------2--0--|----------2--0--|--------2--2----2---2----------|
D|--2------0--0--|--2-------0--2--|--2-----0--0----2---0---2~~~~--|
A|--2------------|--2----------3--|--2-------------0-------2~~~~--|
E|--0------------|--0-------------|--0---------------------0~~~~--| X2


riff 1

trill until *
*
E|--5b-T-5-8---5-8---5-8---5-8---5-8---5-8---5-8---5-8---5-8---5-8----------------------------|
B|-----T----5-8---5-8---5-8---5-8---5-8---5-8---5-8---5-8---5-8---5-8-------------------------|
G|---------------------------------------------------------------------7b-5h7p5---------------|
D|------------------------------------------------------------------------------7-5-----------|
A|----------------------------------------------------------------------------------7--5h7----|
E|--------------------------------------------------------------------------------------------|
E
E|---------------------------------------|
B|---------------------------------------|
G|--------5h7--5h7p5---------------------|
D|--5h7--------------7-5-----------2~~~--|
A|------------------------7-5-3-5--2~~~--|
E|---------------------------------0~~~--|


verse 1
A E G D A D
E|------------------3--2-----2--|
B|----2-------------3--3--2--3--|
G|----2-------------0--2--2--2--|
D|----2--------2----0--0--2--0--|
A|----0--------2----3-----0-----|
E|--------3----0----3-----------|X4


pre-chorus
A E G A E D D E A
E|-----------------3--|----------------2---|----------------------|
B|---2p------------3--|--2p------------3---|---2p--------------2--|
G|---2p------------0--|--2p------------2---|---2p--------------2--|
D|---2p--------2---0--|--2p--------2---0---|---2p----------2---2--|
A|---0p--------2---3--|--0---------2-------|---0p----------2---0--|
E|--------3p---0---3--|-------3p---0-------|---------3p----0------|
A E D A E D A E A F# E D A
E|-----------------3--|----------------2---|----------------------|----------------|
B|---2p------------3--|--2p------------3---|---2p--------------2--|----------------|
G|---2p------------0--|--2p------------2---|---2p--------------2--|--4p--2p--0--2--|
D|---2p--------2---0--|--2p--------2---0---|---2p----------2---2--|--4p--2p--0--2--|
A|---0p--------2---3--|--0---------2-------|---0p----------2---0--|-------------0--|
E|--------3p---0---3--|-------3p---0-------|---------3p----0------|----------------|



chorus
A D D D D D D D D D D D D A E E E E E E E E E E E E
E|----------2-2-2-2-2-2-2-2-2-2-2-2---| E|------------------------------------|
B|---2------3-3-3-3-3-3-3-3-3-3-3-3---| B|---2--------------------------------|
G|---2------2-2-2-2-2-2-2-2-2-2-2-2---| G|---2--------------------------------|
D|---2------0-0-0-0-0-0-0-0-0-0-0-0---| D|---2------2-2-2-2-2-2-2-2-2-2-2-2---|
A|---0--------------------------------| A|---0------2-2-2-2-2-2-2-2-2-2-2-2---|
E|------3-----------------------------|X3 E|------3---0-0-0-0-0-0-0-0-0-0-0-0---|X2
A D D D D D D D D D D D D A E E E E E E E E E E E E
E|----------2-2-2-2-2-2-2-2-2-2-2-2---| E|------------------------------------|
B|---2------3-3-3-3-3-3-3-3-3-3-3-3---| B|---2--------------------------------|
G|---2------2-2-2-2-2-2-2-2-2-2-2-2---| G|---2--------------------------------|
D|---2------0-0-0-0-0-0-0-0-0-0-0-0---| D|---2------2-2-2-2-2-2-2-2-2-2-2-2---|
A|---0--------------------------------| A|---0------2-2-2-2-2-2-2-2-2-2-2-2---|
E|------3-----------------------------|X2 E|------3---0-0-0-0-0-0-0-0-0-0-0-0---|X2

verse 1
A E G D A D
E|------------------3--2-----2--|
B|----2-------------3--3--2--3--|
G|----2-------------0--2--2--2--|
D|----2--------2----0--0--2--0--|
A|----0--------2----3-----0-----|
E|--------3----0----3-----------|X4


pre-chorus
A E G A E D D E A
E|-----------------3--|----------------2---|----------------------|
B|---2p------------3--|--2p------------3---|---2p--------------2--|
G|---2p------------0--|--2p------------2---|---2p--------------2--|
D|---2p--------2---0--|--2p--------2---0---|---2p----------2---2--|
A|---0p--------2---3--|--0---------2-------|---0p----------2---0--|
E|--------3p---0---3--|-------3p---0-------|---------3p----0------|
A E D A E D A E A F# E D A
E|-----------------3--|----------------2---|----------------------|----------------|
B|---2p------------3--|--2p------------3---|---2p--------------2--|----------------|
G|---2p------------0--|--2p------------2---|---2p--------------2--|--4p--2p--0--2--|
D|---2p--------2---0--|--2p--------2---0---|---2p----------2---2--|--4p--2p--0--2--|
A|---0p--------2---3--|--0---------2-------|---0p----------2---0--|-------------0--|
E|--------3p---0---3--|-------3p---0-------|---------3p----0------|----------------|

chorus
A D D D D D D D D D D D D A E E E E E E E E E E E E
E|----------2-2-2-2-2-2-2-2-2-2-2-2---| E|------------------------------------|
B|---2------3-3-3-3-3-3-3-3-3-3-3-3---| B|---2--------------------------------|
G|---2------2-2-2-2-2-2-2-2-2-2-2-2---| G|---2--------------------------------|
D|---2------0-0-0-0-0-0-0-0-0-0-0-0---| D|---2------2-2-2-2-2-2-2-2-2-2-2-2---|
A|---0--------------------------------| A|---0------2-2-2-2-2-2-2-2-2-2-2-2---|
E|------3-----------------------------|X3 E|------3---0-0-0-0-0-0-0-0-0-0-0-0---|X2
A D D D D D D D D D D D D A E E E E E E E E E E E E
E|----------2-2-2-2-2-2-2-2-2-2-2-2---| E|------------------------------------|
B|---2------3-3-3-3-3-3-3-3-3-3-3-3---| B|---2--------------------------------|
G|---2------2-2-2-2-2-2-2-2-2-2-2-2---| G|---2--------------------------------|
D|---2------0-0-0-0-0-0-0-0-0-0-0-0---| D|---2------2-2-2-2-2-2-2-2-2-2-2-2---|
A|---0--------------------------------| A|---0------2-2-2-2-2-2-2-2-2-2-2-2---|
E|------3-----------------------------|X2 E|------3---0-0-0-0-0-0-0-0-0-0-0-0---|X2


pre-solo
A E A E A E A E
E|---------------------------------------------|
B|-------------------------2p------------------|
G|-----2-----2-----2-------2p------------------|
D|-----2--2--2--2--2--2----2p----------2-------|
A|-----0--2--0--2--0--2----0p----------2-------|
E|--------0-----0-----0---------3p-----0-------|


solo
trill until *
E|-----------11p9-----9b---------------------------------------------------5b--T--5-8---5-8-----|
B|----------------11-------9p7-----7b--------------------------------------5---T-----5-8---5-8--|
G|------------------------------9--------7p5-----5b---------------------------------------------|
D|---xxxx/------------------------------------7-------5p3---------------------------------------|
A|---xxxx/-------------------------------------------------5--3----3p1--------------------------|
E|---------------------------------------------------------------------3------------------------|

* trill until *
E|--5-8---5-8---5-8---5-8---5-8---5-8---5-8----------------------------T5--5-8---5-8---5-8---5-8---|
B|-----5-8---5-8---5-8---5-8---5-8---5-8---5-8-------------------------T5-----5-8---5-8---5-8---5-8|
G|----------------------------------------------7h5--------------5h7-------------------------------|
D|--------------------------------------------------7h5------5h7-----------------------------------|
A|------------------------------------------------------7h5----------------------------------------|
E|-------------------------------------------------------------------------------------------------|


E|--/5--T9--9-10----9-10----9-10----9-10----9-10-----/9--T12--12-15-----12-15-----12-15---------|
B|------T9------9-10----9-10----9-10----9-10----9-10-----T12-------12-15-----12-15------12-15---|
G|----------------------------------------------------------------------------------------------|
D|----------------------------------------------------------------------------------------------|
A|----------------------------------------------------------------------------------------------|
E|----------------------------------------------------------------------------------------------|

r *
E|--/12--T15--15-18-----15-18-----15-18------15-17-----15-17-----15-17-----15-18-----15-17------|
B|-------T15-------15-18-----15-18-----15-18------15-17-----15-17-----15-17-----15-18-----15-17-|
G|----------------------------------------------------------------------------------------------|
D|----------------------------------------------------------------------------------------------|
A|----------------------------------------------------------------------------------------------|
E|----------------------------------------------------------------------------------------------|


E|-------------------------------------------------|
B|--17b--17b--17b--17b--17b--17b--17p15~~~~--------|
G|-------------------------------------------------|
D|-------------------------------------------------|
A|-------------------------------------------------|
E|-------------------------------------------------|


pre-chorus
A E G A E D D E A
E|-----------------3--|----------------2---|----------------------|
B|---2p------------3--|--2p------------3---|---2p--------------2--|
G|---2p------------0--|--2p------------2---|---2p--------------2--|
D|---2p--------2---0--|--2p--------2---0---|---2p----------2---2--|
A|---0p--------2---3--|--0---------2-------|---0p----------2---0--|
E|--------3p---0---3--|-------3p---0-------|---------3p----0------|
A E D A E D A E A F# E D A
E|-----------------3--|----------------2---|----------------------|----------------|
B|---2p------------3--|--2p------------3---|---2p--------------2--|----------------|
G|---2p------------0--|--2p------------2---|---2p--------------2--|--4p--2p--0--2--|
D|---2p--------2---0--|--2p--------2---0---|---2p----------2---2--|--4p--2p--0--2--|
A|---0p--------2---3--|--0---------2-------|---0p----------2---0--|-------------0--|
E|--------3p---0---3--|-------3p---0-------|---------3p----0------|----------------|

chorus
A D D D D D D D D D D D D A E E E E E E E E E E E E
E|----------2-2-2-2-2-2-2-2-2-2-2-2---| E|------------------------------------|
B|---2------3-3-3-3-3-3-3-3-3-3-3-3---| B|---2--------------------------------|
G|---2------2-2-2-2-2-2-2-2-2-2-2-2---| G|---2--------------------------------|
D|---2------0-0-0-0-0-0-0-0-0-0-0-0---| D|---2------2-2-2-2-2-2-2-2-2-2-2-2---|
A|---0--------------------------------| A|---0------2-2-2-2-2-2-2-2-2-2-2-2---|
E|------3-----------------------------|X3 E|------3---0-0-0-0-0-0-0-0-0-0-0-0---|X2
A D D D D D D D D D D D D A E E E E E E E E E E E E
E|----------2-2-2-2-2-2-2-2-2-2-2-2---| E|------------------------------------|
B|---2------3-3-3-3-3-3-3-3-3-3-3-3---| B|---2--------------------------------|
G|---2------2-2-2-2-2-2-2-2-2-2-2-2---| G|---2--------------------------------|
D|---2------0-0-0-0-0-0-0-0-0-0-0-0---| D|---2------2-2-2-2-2-2-2-2-2-2-2-2---|
A|---0--------------------------------| A|---0------2-2-2-2-2-2-2-2-2-2-2-2---|
E|------3-----------------------------|X2 E|------3---0-0-0-0-0-0-0-0-0-0-0-0---|X2


outro
G D D A G D D E
E|--3----2---0-----------|---3----2---0--------|
B|--3----3---3------2----|---3----3---3--------|
G|--0----2---0------2----|---0----2---0--------|
d|--0----0---0------2----|---0----0---0---2----|
A|--3---------------0----|---3------------2----|
E|--3--------------------|---3------------0----|

Guitar Tab Creator is intended to store guitar tab created through the tool. It currently does not support in-line text editing. Any text you place in here will be lost. If you need to comment on your tab, please use the "Tab Notes" section located below.