Meadow Rave, By Closed For Repairs (Alex's Guitar Part)

(/) Slide Up  (\) Slide Down  (h) Hammer On  (p) Pull Off  (b) Bend (r) Release (v) Vibrato
Intro x2 (Guitar 1)
E|--
B|--
G|--
D|--
A|--
E|--


Pre Verse
E|----------------------------------------------------------------------------
B|----------------------------------------------------------------------------
G|-------------------6--6----6--6--6-------------------------------6--6-------
D|--6--6--6--8--6----6--6----6--6--6--10--8--6----6--6--6--8--6----6--6-------
A|--6--6--6--6--6----4--4----4--4--4--10--8--6----6--6--6--6--6----4--4-------
E|--4--4--4--4--4---------------------8---6--4----4--4--4--4--4---------------



E|--------------------------------------------------------------
B|--------------------------------------------------------------
G|--6--6----6/10\8-------------------6--6----6--6--6------------
D|--6--6--------------6--6--6--8--6--6--6----6--6--6--10--8--6--
A|--4--4----4-8--6----6--6--6--6--6--4--4----4--4--4--10--8--6--
E|--------------------4--4--4--4--4-------------------8---6--4--



E|------------------------------------------
B|------------------------------------------
G|--------------6--6----10--10--10--13--13--
D|--6--6--8--6--6--6------------------------
A|--6--6--6--6--4--4----8---8---8---11--11--
E|--4--4--4--4------------------------------


Verse
E|---------------------------------------------
B|---------------------------------------------
G|---------------------------------------------
D|--6----------6--6--6----------6--6-----6--6--
A|--6----------6--6--6----------6--6-----6--6--
E|--4----------4--4--4----------4--4-----4--4--


Pre Chorus/Solo Underlay
E|---------------------------------------
B|---------------------------------------
G|-----------8--8--6----6--6--6--6--6/8--
D|--3--3--3--8--8--6----6--6--6--6-------
A|--3--3--3--6--6--4----4--4--4--4--4-6--
E|--1--1--1------------------------------


Improved Solo
E|--
B|--
G|--
D|--
A|--
E|--


Chorus
E|-------------------------------------------------------------------------
B|-------------------------------------------------------------------------
G|--13--13--13----------------------------------13--13--13-----------------
D|--------------13--13/15--13--10--8--10--8--6--------------13--13/15--13--
A|--11--11--11----------------------------------11--11--11-----------------
E|--------------11--11-13--11--8---6--8---6--4--------------11--11-13--11--



E|-----------------|------------------------------------------------
B|-----------------|------------------------------------------------
G|-----------------|------------------------------------------------
D|--18\17--17--20--|------------------------------------13--15--15--
A|-----------------|--15--13----------------13--15--15--------------
E|--16-15--15--18--|----------16--13--16----------------------------
http://www.guitartabcreator.com
Guitar Tab Creator is intended to store guitar tab created through the tool. It currently does not support in-line text editing. Any text you place in here will be lost. If you need to comment on your tab, please use the "Tab Notes" section located below.