Tunisia

(/) Slide Up  (\) Slide Down  (h) Hammer On  (p) Pull Off  (b) Bend (r) Release (v) Vibrato


E|--5--8--6-----5--3-----2--------------------5--------8--6--5--
B|-----------7--------4-----5-----------4--5-----7--8-----------
G|-----------------------------5--3--2--------------------------
D|--------------------------------------------------------------
A|--------------------------------------------------------------
E|--------------------------------------------------------------



E|-----3--------4--5-----4--5-----3-----9--7--
B|--3-----5--4--------4--------3-----5--------
G|--------------------------------------------
D|--------------------------------------------
A|--------------------------------------------
E|--------------------------------------------



E|--1--3--1--5-----1-----3--1-----8--6--5-----
B|--------------3-----3--------3--------------
G|--------------------------------------------
D|--------------------------------------------
A|--------------------------------------------
E|--------------------------------------------



E|-----3--------4--5-----4--5--------9--7--
B|--3-----5--4--------4--------3--5--------
G|-----------------------------------------
D|-----------------------------------------
A|-----------------------------------------
E|-----------------------------------------



E|--6--4--5--3--1-----------1--3--1--3--1--3-----5--6--8--5--
B|-----------------3-----3--------------------3--------------
G|--------------------2--------------------------------------
D|-----------------------------------------------------------
A|-----------------------------------------------------------
E|-----------------------------------------------------------



E|--6--2--5--3--6--2--0--3--5--6--5--6--
B|--------------------------------------
G|--------------------------------------
D|--------------------------------------
A|--------------------------------------
E|--------------------------------------



E|--9--8--6--5--8--------------4--5-----
B|-----------------8--5--6-----------4--
G|--------------------------5-----------
D|--------------------------------------
A|--------------------------------------
E|--------------------------------------



E|--5--3--5--3--1-----5--1--3--1-----
B|-----------------3-----------------
G|--------------------------------2--
D|-----------------------------------
A|-----------------------------------
E|-----------------------------------



E|-----------------8--6--4--5-----1--3--1--------
B|--------------6--------------3-----------3-----
G|--------5--6-----------------------------------
D|--7--8-----------------------------------------
A|-----------------------------------------------
E|-----------------------------------------------



E|--5-----3--1-----5-----------3--5--1-----------------
B|-----4--------3-----4-----5-----------3-----2-----0--
G|-----------------------3-----------------2-----2-----
D|-----------------------------------------------------
A|-----------------------------------------------------
E|-----------------------------------------------------



E|--1-----0--------------5--8--7--5--6--3--------3--5--1--10-----------
B|-----2-----3--5--6--8--------------------4------------------9--8-----
G|--------------------------------------------3-----------7------------
D|------------------------------------------------------------6--5-----
A|---------------------------------------------------------------------
E|---------------------------------------------------------------------



E|--------10------------------10--------
B|--6---------9--8--6-----10------9--8--
G|-----7--7------------7------7---------
D|--3---------6--5--3-----7-------6--5--
A|-----5---------------5----------------
E|--------------------------------------



E|-----------8--6--4--5-----------8--6--8--6--5--1-----0--
B|--5--6--8--------------3--6--8--------------------2-----
G|--------------------------------------------------------
D|--------------------------------------------------------
A|--------------------------------------------------------
E|--------------------------------------------------------



E|-----------1--3--6--3--4--5--3--2--10--8------6--3--2--5--3-----------------------1--
B|--1--3--4---------------------------------10-----------------5--3-----1-----1--3-----
G|-------------------------------------------------------------------2-----3-----------
D|-------------------------------------------------------------------------------------
A|-------------------------------------------------------------------------------------
E|-------------------------------------------------------------------------------------



E|--3--4--1-----------------------------------3-----------5--6--8--5--6--5--
B|-----------2--1-----4--3--2-----1--3--5--6-----5--6--8--------------------
G|-----------------3-----------3--------------------------------------------
D|--------------------------------------------------------------------------
A|--------------------------------------------------------------------------
E|--------------------------------------------------------------------------



E|-----3--1-----1-----------1--5--3-----1--0--------
B|--4--------3-----2-----3-----------3--------2-----
G|--------------------2--------------------------3--
D|--------------------------------------------------
A|--------------------------------------------------
E|--------------------------------------------------



E|--1-----------1--3--1-----5--
B|-----3-----3-----------3-----
G|--------2-----------------2--
D|-----------------------------
A|-----------------------------
E|-----------------------------
http://www.guitartabcreator.com
Guitar Tab Creator is intended to store guitar tab created through the tool. It currently does not support in-line text editing. Any text you place in here will be lost. If you need to comment on your tab, please use the "Tab Notes" section located below.