song 1

(/) Slide Up  (\) Slide Down  (h) Hammer On  (p) Pull Off  (b) Bend (r) Release (v) Vibrato


E|-------------------------------------
B|-------------------------------------
G|-----7-----10-----5-----10-----5--7--
D|--0-----0------0-----0------0--------
A|-------------------------------------
E|-------------------------------------



E|-----1--3--|------6------------|-----4--6--|-----------------------------1--3--
B|--3--1--3--|--10--6--6--8--10--|--6--4--6--|--6--5--5--4--4--3--4--3--3--1--3--
G|--2--2--4--|--10--7--6--8--10--|--5--5--7--|--5--5--4--4--3--3--3--3--2--2--4--
D|--4--3--5--|--10--8--6--8--10--|--7--6--8--|--7--7--6--6--5--5--5--5--4--3--5--
A|--5--3--5--|--8---8--4--6--8---|--8--6--8--|--8--8--7--7--6--6--5--5--5--3--5--
E|-----1--3--|------6------------|-----4--6--|-----------------------------1--3--



E|--------------------------------------------------
B|--------------3-----------------------------------
G|-----------------2-----------2--5--2-----4--7--4--
D|-----------4--------4-----3-----------5-----------
A|--5--4--5--------------5--------------------------
E|--------------------------------------------------
http://www.guitartabcreator.com
Guitar Tab Creator is intended to store guitar tab created through the tool. It currently does not support in-line text editing. Any text you place in here will be lost. If you need to comment on your tab, please use the "Tab Notes" section located below.