Shiloh and Tio

(/) Slide Up  (\) Slide Down  (h) Hammer On  (p) Pull Off  (b) Bend (r) Release (v) Vibrato
E|------------------------------------------------------------------------------
B|--------------------------------------------------------------------------12--
G|--------------------------------------------------------------------------11--
D|--------------10--12------------------10--12------------------10--12------12--
A|------10--12----------11------10--12----------11------10--12----------11--10--
E|--10----------------------10----------------------10--------------------------



E|------------------------------------------------------------
B|-----------------10v--------------------------9v------------
G|------------11v-------11v----------------11v------11v-------
D|-------11v-----------------11v------11v----------------11v--
A|------------------------------------------------------------
E|--10v---------------------------9v--------------------------



E|--14b16--14--11----------------------------------------------
B|-----------------14-------------------------11--9--9--7--11--
G|---------------------13p15--13--11------11--11--9--9--8--11--
D|------------------------------------13------11--9--9--9--11--
A|-------------------------------------------------------------
E|-------------------------------------------------------------



E|---------------------------------------------------------------|-----
B|---------------------------------------------------------------|-----
G|---------7--9-----------6--8--------------5--------------7-----|-----
D|------9--------8-----8--------7-----7--7-----7-----9--9-----9--|-----
A|--10--------------9--------------7--------------9--------------|-----
E|---------------------------------------------------------------|-----



E|----------------------------------------------------------------------------------------------------------------------------
B|----------------------------------------------------------------------------------------------------------------------------
G|------------7--7--------------9--9----------9--9----------11--11--12--11--10--9---------------------------------------------
D|------9--9------------11--11------------10------------12-------------------------12--11--11--10--9--------------------------
A|--10--------------12----------------10------------12------------------------------------------------12--11--10--------------
E|----------------------------------------------------------------------------------------------------------------12--11--10--



E|------------------------------------------------------------------------------------
B|--9---11--9---11--13--15--15--17--17--15--15--14--13--12--11--10--9--8--7--6--5--4--
G|--10--12--10--12--14--14--13--15--16--13--14--13--12--11--10--9---8--7--6--5--4--3--
D|--10--12--10--12--14--15--15--17--17--15--15--14--13--12--11--10--9--8--7--6--5--4--
A|------10------10--12--13--14--16--15--14--13--12--11--10--9---8---7--6--5--4--3--2--
E|--10------10------------------------------------------------------------------------



E|--------------|--------0-----0-----0-----------------|--------|--------------|--------
B|--1--1--5--1--|--1--1--0--1--0--1--0-----------------|-----7--|--------------|--------
G|--2--1--4--2--|--2--1--0--1--0--1--0-----------4--4--|--6--7--|-----------4--|--2--4--
D|--2--1--5--2--|--2--3--2--3--2--3--2--3--3--3--5--5--|--7--7--|--5--5--5--5--|--3--5--
A|--3--3--3--3--|--3--3--2--3--2--3--2--3--3--3--5--5--|--7--5--|-----------5--|--3--5--
E|-----1--------|-----1--0--1--0--1--0--1--1--1--3--3--|--5-----|--5--5--5--3--|--1--3--



E|--------------|--17--14----------17--14----------17--14------19--17--17--14----------17--14----------17--14------19--
B|-----6--7-----|----------17--14----------17--15----------17------------------17--14----------17--15----------17------
G|--6--6--7--4--|------------------------------------------------------------------------------------------------------
D|--7--6--7--5--|------------------------------------------------------------------------------------------------------
A|--7--4--5--5--|------------------------------------------------------------------------------------------------------
E|--5--------3--|------------------------------------------------------------------------------------------------------



E|--21--19--17------21--19--17------21--19--17------17--|--------------------------
B|--------------17--------------17--------------17------|--------------------------
G|------------------------------------------------------|--------------------------
D|------------------------------------------------------|-----------5--7-----------
A|------------------------------------------------------|-----5--7--------6--------
E|------------------------------------------------------|--5-----------------5--5--
http://www.guitartabcreator.com
Guitar Tab Creator is intended to store guitar tab created through the tool. It currently does not support in-line text editing. Any text you place in here will be lost. If you need to comment on your tab, please use the "Tab Notes" section located below.