New Song

(/) Slide Up  (\) Slide Down  (h) Hammer On  (p) Pull Off  (b) Bend (r) Release (v) Vibrato


E|--5-----3-----1--0--0--
B|--5--4--3--2--1--0--0--
G|--5--5--3--3--1--0--5--
D|--4--5--2--3--3--2--7--
A|--4-----2-----3--2--0--
E|--5--5--3--3--1--0-----



E|---------------5p4h5----------------------------------------5p4h5---------------------------
B|-----6p5h6---------------6p5h6--------------------6p5h6---------------6p5h6-----------------
G|--------------------------------------------------------------------------------------------
D|--7---------7---------7------------------------7---------7---------7------------------------
A|--------------------------------7--8--7--5--7--------------------------------8--7--5--------
E|--------------------------------------------------------------------------------------8--5--

E|--------------------------
B|-----5--8--3-----5--8--5--
G|-----5--7--4-----5--7--5--
D|-----5--5--5-----5--5--5--
A|--------------------------
E|--5-----------5-----------



E|----------------------------------------------------------------------------------
B|--------------13--------------13--------------------------13----------------------
G|--14--13--14------14--13--14------14--13------14--13--14------14--13--14----------
D|------------------------------------------14--------------------------------------
A|--------------------------------------------------------------------------13--12--
E|----------------------------------------------------------------------------------



E|---------------5p4h5---------------------------------
B|-----6p5h6---------------6p5h6-----------------------
G|-----------------------------------------------------
D|--7---------7---------7---------7--------------------
A|-----------------------------------7--8--7--8--------
E|-----------------------------------------------8--5--



E|--5--3--5--3--1--3--
B|--5--3--5--3--1--3--
G|--5--4--5--4--2--4--
D|--7--5--7--5--3--5--
A|--7--5--7--5--3--5--
E|--5-----5-----------



E|-----5-------5-5-------5-------5-5-------5-------5-5-------5-------5-5-------5-------5-5---
B|---5---5---5-----5---5---5---5-----5---5---5---5-----5---5---5---5-----5---5---5---5-----5-
G|-------------------------------------------------------------------------------------------
D|-7-------7---------6-------6---------5-------5---------4-------4---------3-------3---------
A|-0-------0---------0-------0---------0-------0---------0-------0---------0-------0---------
E|-------------------------------------------------------------------------------------------



E|-----5-------5-5-------5-------5-5-------5-------5-5---|--------------------------------
B|---5---5---5-----5---5---5---5-----5---5---5---5-----5-|---6p5h6---8p7h8---6p5h6---10p9h
G|-------------------------------------------------------|--------------------------------
D|-2-------2---------1-------1---------------------------|-7-------7-------7-------7------
A|-0-------0---------0-------0---------0-------0---------|-0-------0-------0-------0------
E|-------------------------------------------------------|--------------------------------



E|-------------------------------------------------0-0-5-4-
B|----13p12h13----15p14h15----13p12h13----17p16h17-0-0-5-4-
G|-------------------------------------------------5-4-5-4-
D|-14----------14----------14----------14----------7-6-3-2-
A|-0-----------0-----------0-----------0-----------0-0-0-0-
E|---------------------------------------------------------
Guitar Tab Creator is intended to store guitar tab created through the tool. It currently does not support in-line text editing. Any text you place in here will be lost. If you need to comment on your tab, please use the "Tab Notes" section located below.