My Funny Valentine

(/) Slide Up  (\) Slide Down  (h) Hammer On  (p) Pull Off  (b) Bend (r) Release (v) Vibrato


E|--10--8---------------|--10--8------------------|--10--8---------------
B|---------8------------|---------8---------------|---------8------------
G|------------8--7------|------------8--7---------|------------8--7------
D|------------------10--|------------------10--9--|------------------10--
A|----------------------|-------------------------|----------------------
E|----------------------|-------------------------|----------------------



E|--10--8------------------------|--|--10--8------------------|-----|--
B|---------8------------------8--|--|---------9---------------|-----|--
G|------------8--7------7--8-----|--|------------10--7--8--7--|--8--|--
D|------------------10-----------|--|-------------------------|-----|--
A|-------------------------------|--|-------------------------|-----|--
E|-------------------------------|--|-------------------------|-----|--



E|--------------------------|--------------------------|-----------------------------
B|--------------8-----------|--------------8-----------|--------------8--------------
G|-----5--7--8-----8--7--5--|-----4--7--8-----8--7--4--|-----5--7--8-----8--7--5-----
D|--5-----------------------|--5-----------------------|--5--------------------------
A|--------------------------|--------------------------|-----------------------------
E|--------------------------|--------------------------|-----------------------------



E|--------------------------
B|--------------8-----------
G|-----5--7--8-----8--7--5--
D|--5-----------------------
A|--------------------------
E|--------------------------
http://www.guitartabcreator.com
Guitar Tab Creator is intended to store guitar tab created through the tool. It currently does not support in-line text editing. Any text you place in here will be lost. If you need to comment on your tab, please use the "Tab Notes" section located below.