Mira Mira solo section

(/) Slide Up  (\) Slide Down  (h) Hammer On  (p) Pull Off  (b) Bend (r) Release (v) Vibrato
E|-----------|-----1--------------------|--------------|--------------------------
B|-----------|--1--------4--1-----------|--1-----------|--------------------------
G|-----0--3--|--------3--------0-----3--|-----3--0-----|--4--1--------------------
D|--3--------|--------------------3-----|-----------3--|--------4--2-----4--2-----
A|-----------|--------------------------|--------------|--------------4--------2--
E|-----------|--------------------------|--------------|--------------------------



E|-----------|--------------------------|--1h3--1h3v--|--1--------------------
B|-----------|-----------------------3--|-------------|-----4--1--------------
G|-----------|--------1--4--2-----0-----|-------------|-----------3--0--------
D|--------1--|--2--4-----------0--------|-------------|-----------------3--1--
A|--1--3-----|--------------------------|-------------|-----------------------
E|-----------|--------------------------|-------------|-----------------------



E|-----------|--------------------------|--------------------------|-----------5-----8--6-----
B|-----------|--1-----------2-----------|--3--1-----4--5-----6-----|--7--4--5-----8--------6--
G|-----0--3--|-----3--0--------4--1-----|--------2--------6-----7--|--------------------------
D|--3--------|-----------3-----------4--|--------------------------|--------------------------
A|-----------|--------------------------|--------------------------|--------------------------
E|-----------|--------------------------|--------------------------|--------------------------



E|-----3--1-------1-----------|--------------------------|--------------0--|--1--0--------0-----------
B|--4--------1-------4--1-----|--4--1--------------------|--------1--4-----|--------4--1-----4--1-----
G|-------------------------3--|--------3--0-----3--0-----|-----------------|-----------------------3--
D|----------------------------|--------------3--------1--|-----------------|--------------------------
A|----------------------------|--------------------------|-----------------|--------------------------
E|----------------------------|--------------------------|-----------------|--------------------------


E|--------------------------|--------------------------|-------------------------|-----------1--3--6--8\--
B|--1--0--------2--1--0-----|--3--------3--4--1--------|-------------------------|-----1--4---------------
G|--------3--0-----------1--|-----3--4-----------3--0--|-----0----------------0--|--3---------------------
D|--------------------------|--------------------------|--3-----1--3----1--3-----|------------------------
A|--------------------------|--------------------------|-------------------------|------------------------
E|--------------------------|--------------------------|-------------------------|------------------------
http://www.guitartabcreator.com
Guitar Tab Creator is intended to store guitar tab created through the tool. It currently does not support in-line text editing. Any text you place in here will be lost. If you need to comment on your tab, please use the "Tab Notes" section located below.