Macaw

(/) Slide Up  (\) Slide Down  (h) Hammer On  (p) Pull Off  (b) Bend (r) Release (v) Vibrato

A9 D9 A D E
E|----------------------------|--------------------------------------
B|--------4--5-----5----5--5--|-----10--9--10------------------------
G|--------------4--5----5--5--|--------------------------------9-----
D|-----5-----------4----4--4--|--7-------------12--11--11--12--------
A|-----------------5----5--5--|--------------------------------------
E|--5-------------------------|--------------------------------------



E|------------------------------------------------------------------------------------------------
B|------------------------------------------------------------------------11-12-13-14-12-13-14-15-
G|-9-10-11-12-10-11-12-13-11-12-13-14-12-13-14-15-13-14-15-16-14-15-16-17-------------------------
D|------------------------------------------------------------------------------------------------
A|------------------------------------------------------------------------------------------------
E|------------------------------------------------------------------------------------------------


A6 B6 Em7 A6
E|-5-7-9----------5-7-9--------------------------------------------
B|-------7-8-9-10-------7-8-9-10-----9-10-12---------9-10-12-14-12-
G|---------------------------------9---------8-9---9---------------
D|-------------------------------9---------------9-----------------
A|-----------------------------------------------------------------
E|-----------------------------------------------------------------


A6 Amaj7 G#m F#m Em
E|----11-12-14-15-14----------------------------------------------------------15-18-16-
B|-10----------------15-14----------------------------------------------15-16----------
G|-------------------------15-14-------------------------------14-15-17----------------
D|-------------------------------14-------------------14-15-17-------------------------
A|----------------------------------14----------14-17----------------------------------
E|-------------------------------------14-15-15----------------------------------------


F#9 Em7 F#9 Bm7
E|-16-18-19-18----16-18-19-18-------------------------------------15-18-16-
B|-------------19-------------------------------------------15-16----------
G|----------------------------18-------------------14-15-17----------------
D|----------------------------------------14-15-17-------------------------
A|----------------------------------14-17----------------------------------
E|-------------------------------15----------------------------------------


Ab Gb Db Db B Gb A D E
E|-16-14p13h14p13-----------------------|-------------------------------------------------------
B|----------------14--------------------|---------------------------------10-9-10---------------
G|-------------------13-13-10hh11p10----|-----------------------------------------------------9-
D|-----------------------------------11-|-11-11-8h9p8-------6-9-8-9-9-8-7---------12-11-11-12---
A|--------------------------------------|-------------9-7-7-------------------------------------
E|--------------------------------------|-------------------------------------------------------



E|----------------------------------
B|-------------------------------13-
G|-10-10\11-11\12-12\14-14\14-14\12-
D|-------------------------------11-
A|-------------------------------12-
E|----------------------------------


A9 D9 A9
E|----------------|-----------------------------
B|-----4-5---5--5-|-----------------------3-5-5-
G|---------4-5--5-|-----------------2-5-4-----4-
D|---5-------4--4-|-----------2-5-4-----------5-
A|-----------5--5-|-----2-5-4-------------------
E|-5--------------|-5-3-----------------------5-
http://www.guitartabcreator.com
Guitar Tab Creator is intended to store guitar tab created through the tool. It currently does not support in-line text editing. Any text you place in here will be lost. If you need to comment on your tab, please use the "Tab Notes" section located below.