DustAndSnow

(/) Slide Up  (\) Slide Down  (h) Hammer On  (p) Pull Off  (b) Bend (r) Release (v) Vibrato

E|--------------------7-------------------------
B|--7--8--10-------------10--8-----8--10--8--7--
G|--7-------------------------------------------
D|--7---------10--10------------8---------------
A|----------------------------------------------
E|----------------------------------------------



E|-------------------------------|-----------------------------------------------|-----|--7--
B|--7---------8------------8-----|-----5--7--5-----5--5--7--5-----5--5--7--5-----|--8--|--8--
G|--7------9-----9---------------|--7-----------7--6-----------6--5-----------5--|--7--|--7--
D|--7--10---------------9-----9--|--7--------------7--------------7--------------|--9--|-----
A|------------------10-----------|-----------------------------------------------|-----|-----
E|-------------------------------|-----------------------------------------------|-----|-----



E|------6-------------5--------|--------|-----------------------------5-----------------------------
B|---------6--5v---------6--5--|--5--5--|--------------------6-----6--------------------------------
G|-----------------------------|--6--5--|-----------------------5-----------------------------------
D|--8v------------7v-----------|--6--4--|-----------7-----7--------------------8--7-----8--7--------
A|-----------------------------|--------|-----4--8-----8--------------------5--------8--------8-----
E|-----------------------------|--6--5--|--5-----------------------------6--------------------------



E|--------------------------------------|-----------5------------8----------10--|-----
B|--------------------------------------|--------5------------8-----------------|-----
G|--------------------------------------|-----6------------9------------11------|-----
D|--------7--6-----4-----4--7--6-----4--|--7-----------10-----------12----------|-----
A|-----4--------7v-----5-----------7-----|---------------------------------------|-----
E|--5v-----------------------------------|---------------------------------------|-----



E|----------10---------8--------7--------6-----|--------------------7-------------------------
B|------------------------------------------7--|--7--8--10-------------10--8-----8--10--------
G|------11----------9--------8--------7-----7--|--7-------------------------------------------
D|--12----------10--------9--------8--------7--|--7---------10--10------------8---------------
A|---------------------------------------------|----------------------------------------------
E|---------------------------------------------|----------------------------------------------
http://www.guitartabcreator.com
Guitar Tab Creator is intended to store guitar tab created through the tool. It currently does not support in-line text editing. Any text you place in here will be lost. If you need to comment on your tab, please use the "Tab Notes" section located below.