This Can't Be Love(NYSSMA) Part 2

(/) Slide Up  (\) Slide Down  (h) Hammer On  (p) Pull Off  (b) Bend (r) Release (v) Vibrato
E|----------------|--
B|----------------|--
G|----------------|--
D|----------------|--
A|----------6--5--|--
E|----------------|--



E|--------------------|------------------------|---------------------
B|--------------------|--------3--4v-----------|------------------4--
G|--------------3--4--|--5--6---------5--------|--6v--------3--5-----
D|------3v--6v--------|------------------6--3--|------3--6-----------
A|--6v----------------|------------------------|---------------------
E|--------------------|------------------------|---------------------



E|----------|-------------------------|--------------13--11v----|------11--10--9--8--
B|----------|---------------9--8------|------11--14-------------|--------------------
G|----------|-----------10--------10--|--11---------------------|--------------------
D|----------|----8--11----------------|-------------------------|--------------------
A|----------|-------------------------|-------------------------|--------------------
E|----------|-------------------------|-------------------------|--------------------



E|--7v--------7------------|-------------------|----------------------
B|---------7-----10--9-----|-------------------|----------------8--7--
G|------8---------------9--|--8--6--------6----|----------5--8--------
D|-------------------------|--------8--9-------|----5--6--------------
A|-------------------------|-------------------|----------------------
E|-------------------------|-------------------|----------------------



E|-----------------|--------------------------|------------------------
B|--6--------6-----|--------------------------|-----------7v--------6--
G|--------------9--|--8--5--------6--5--------|--------6---------6-----
D|-----------------|--------6-----------6-----|-----8---------8--------
A|-----------------|-----------8-----------8--|--9---------------------
E|-----------------|--------------------------|------------------------



E|------------------------|----------------------|------------
B|------------------------|----------------------|------8--6--
G|--9v--8--7--6-----------|--7--6----------------|------------
D|---------------9--8--9--|--------5--6--8-------|------------
A|------------------------|-----------------8----|------------
E|------------------------|----------------------|------------



E|------------------------|----------------|-------------4-------
B|---------6--------------|----------------|----------4-----4----
G|--8v--7-----8--5--------|--6v--5--4v-----|-------5-------------
D|------------------6-----|-------------6--|----6----------------
A|---------------------8--|----------------|---------------------
E|------------------------|----------------|---------------------



E|--------------|-----------5--------5--9--|--8--6--5------5--8--10--
B|--------------|--------6-----5--6--------|-----------8v------------
G|--------------|-----7--------------------|-------------------------
D|--------5--7--|--8-----------------------|-------------------------
A|--------------|--------------------------|-------------------------
E|--------------|--------------------------|-------------------------



E|--12--10---------|-------------------|----------11--14--------|------------------13--11v--
B|-----------------|-------------------|------12----------14----|----------11--15-----------
G|----------7------|-------------------|--13--------------------|------11-------------------
D|-----------------|------10--11--13v--|------------------------|--13-----------------------
A|-----------------|-------------------|------------------------|---------------------------
E|-----------------|-------------------|------------------------|---------------------------



E|-------------9--12--9v--|------13--11--9------|-----------------------------------
B|---------10-------------|-----------------13--|--11--10---------------------------
G|-----11-----------------|---------------------|----------13--10----------11--10v--
D|--9---------------------|---------------------|------------------11---------------
A|------------------------|---------------------|----------------------13-----------
E|------------------------|---------------------|-----------------------------------



E|--------------------------------|-------------|------------4--7-----4v--
B|--------------------------------|-------------|------4--6--------6------
G|------------------------11--14--|--13v--------|-------------------------
D|----11----------11--13----------|-------------|-------------------------
A|--------13--14------------------|-------------|-------------------------
E|--------------------------------|-------------|-------------------------



E|----------------|------------------------|---------------------|------5v--
B|----------6--5--|--4---------------------|--------4--6--4------|------5---
G|----------------|-----5--------6v--3--4--|--5--6---------------|------6---
D|----------------|--------6--3------------|---------------------|----------
A|----------------|------------------------|---------------------|----------
E|----------------|------------------------|---------------------|----------
http://www.guitartabcreator.com
Guitar Tab Creator is intended to store guitar tab created through the tool. It currently does not support in-line text editing. Any text you place in here will be lost. If you need to comment on your tab, please use the "Tab Notes" section located below.