This Can't Be Love (NYSSMA)

(/) Slide Up  (\) Slide Down  (h) Hammer On  (p) Pull Off  (b) Bend (r) Release (v) Vibrato
E|-----------------------------------13--|--11--|--11--10--9--7--------7--
B|-------------9--8----------11--14------|------|-------------------7-----
G|---------10--------10--11--------------|------|----------------8--------
D|--8--11--------------------------------|------|-------------------------
A|---------------------------------------|------|-------------------------
E|---------------------------------------|------|-------------------------



E|------------------------------|----------|----------------3--------
B|--10--9-----------------------|----------|-------------4-----6-----
G|---------10--9----------------|----------|----------4--------------
D|----------------11--8--10-----|----------|----5--6-----------------
A|------------------------------|----------|-------------------------
E|---------------------------9--|--11------|-------------------------



E|--------------------------|--------------------------|-------------------------
B|--4-----------------------|--------------6--3--4--6--|--7----------6--5--4--3--
G|-----5--------6--5--3-----|--------3--6--------------|-------3--6--------------
D|--------6--3-----------6--|-----4--------------------|-------------------------
A|--------------------------|--6-----------------------|-------------------------
E|--------------------------|--------------------------|-------------------------



E|-------------|-----------------|--------------------------
B|-------------|-----------------|--3--6--5--4--3-----------
G|--6----3--4--|--------------5--|-----------------5--------
D|-------------|--------3--6-----|--------------------6--3--
A|-------------|-----------------|--------------------------
E|-------------|-----------------|--------------------------



E|---------------------------|-------2----3--4--|------4--5--6--
B|---------------------------|-------4----5--6--|------6--7--8--
G|--6----------5--4----------|------------------|---------------
D|-------3--6--------6--3----|--6---------------|---------------
A|---------------------------|------------------|---------------
E|---------------------------|------------------|---------------



E|--------------|--------------------------|----------------------
B|--------------|-----6--5-----------------|--------8--5--6v------
G|--------------|--7--------6--5-----------|--5--8----------------
D|--------5--8--|-----------------8--5--6--|----------------------
A|--------------|--------------------------|----------------------
E|--------------|--------------------------|----------------------



E|-----------------------|--------------7--11--9--7--|---------------------
B|-------------------7v--|--6--------9---------------|--8-----9--7--6-----------
G|----------5-----8------|-----8--9------------------|----------------6-------
D|-------------9---------|---------------------------|------------------------
A|----7--8---------------|---------------------------|------------------------
E|-----------------------|---------------------------|------------------------



E|-------------------------|-----------------6--4-----|-----------------------------
B|-------------------------|-----------5--7--------6--|--7-----------6--4-----------
G|--7----------6--4-----4--|--------4-----------------|-----------6--------6--------
D|-------4--7--------7-----|--4--5--------------------|-----4--8--------------8-----
A|-------------------------|--------------------------|-----------------------------
E|-------------------------|--------------------------|-----------------------------



E|--------------------------|--------------------------
B|--------------------------|--------------------------
G|--------------------------|--------------------------
D|--------9--8v-------------|--------------------------
A|--9--6-----------9--6--7--|--8-----------------------
E|--------------------------|-----5--6--7--------------
http://www.guitartabcreator.com
Guitar Tab Creator is intended to store guitar tab created through the tool. It currently does not support in-line text editing. Any text you place in here will be lost. If you need to comment on your tab, please use the "Tab Notes" section located below.