The Auditor

(/) Slide Up  (\) Slide Down  (h) Hammer On  (p) Pull Off  (b) Bend (r) Release (v) Vibrato
E|-----------9--------7-----------7--------5-----------9--------7--------------------|--------
B|--------7-----7--------------5-----5--------------7-----7--------5--5--5--5--5--5--|--5--5--
G|-----8-----------8--------6-----------6--------8-----------8-----6--6--6--6--6--6--|--6--6--
D|--9--------------------7--------------------9--------------------7--7--7--7--7--7--|--7--7--
A|-----------------------------------------------------------------------------------|--------
E|-----------------------------------------------------------------------------------|--------



E|-----------10-----------9-----------10--------
B|-----7--8---------7--8--------7--8------5--5--
G|----------------------------------------6--6--
D|--9------------9-----------9------------7--7--
A|----------------------------------------------
E|----------------------------------------------



E|-----------10-----------9----------------------------------------10--11--10---------------------
B|-----7--8---------7--8--------7--8--10--8--7-------------10--11--------------11--10-------------
G|--9------------9-----------9------------------9--10--11------------------------------11--10--9--
D|------------------------------------------------------------------------------------------------
A|------------------------------------------------------------------------------------------------
E|------------------------------------------------------------------------------------------------



E|---------------------8-----------7--------------------
B|--5----5-------5--6--------5--6--------5--6--8--6--5--
G|--7b9--7b9--7-----------7-----------7-----------------
D|------------------------------------------------------
A|------------------------------------------------------
E|------------------------------------------------------



E|-----------------------------------------------------------
B|--6-----6-----8--6--5h6p5----------------------------------
G|--8b10--8b10---------------7--5--4h5p4h5p4-----------------
D|--------------------------------------------8--5p4h5p4--2--
A|-----------------------------------------------------------
E|-----------------------------------------------------------
http://www.guitartabcreator.com
Guitar Tab Creator is intended to store guitar tab created through the tool. It currently does not support in-line text editing. Any text you place in here will be lost. If you need to comment on your tab, please use the "Tab Notes" section located below.