Indiana, Our Indiana

(/) Slide Up  (\) Slide Down  (h) Hammer On  (p) Pull Off  (b) Bend (r) Release (v) Vibrato


G|----------------------------------------------------------------------------------------
D|------------------1--------------------0----------------------------------------------10
A|--1---5-4-3---0-3---3-0---1------1---1---4---0-3-3-----------------1---1---0-----0---0--
E|----1-------1-----------1--3-31----1-------1-------1-3-5-33-31-123----3-33---123----1---


G|----------------------------------------------------------------
D|--------------------------------------------------1-------------
A|----5-2---3---3-3------3---1-2-3--1---5-4-3---0-3---3-0---1-----
E|--3-----3---3-----11-1---1----------1-------1-----------1--3-31-


G|---------------------------------------------------------------------------------------
D|--------0----------------------------------------------10------------------------------
A|--1---1---4---0-3-3-----------------1---1---0-----0---0-------5-2---3---3-3------3---1-
E|----1-------1-------1-3-5-33-31-123----3-33---123----1------3-----3---3-----11-1---1---


G|-------------------------
D|----1--0-----------------
A|--1-------3--2--1------1-
E|---------------------1---

http://www.guitartabcreator.com
Guitar Tab Creator is intended to store guitar tab created through the tool. It currently does not support in-line text editing. Any text you place in here will be lost. If you need to comment on your tab, please use the "Tab Notes" section located below.