Riff Idea 1

(/) Slide Up  (\) Slide Down  (h) Hammer On  (p) Pull Off  (b) Bend (r) Release (v) Vibrato


E|--------------0--------------0--------------0--------------0--
B|--------3--------------3--------------3--------------3--------
G|-----------2--------------2--------------2--------------2-----
D|--------------------------------------------------------------
A|-----0--------------0--------------0--------------0-----------
E|--2--------------2--------------2--------------2--------------



E|--------------0--------------0--------------0--------------0--
B|--------7--------------7--------------7--------------7--------
G|-----------0--------------0--------------0--------------0-----
D|--------------------------------------------------------------
A|-----5--------------5--------------5--------------5-----------
E|--7--------------7--------------7--------------7--------------



E|--------------------------------------------------------------
B|-----7--------------7--------------7--------------7-----------
G|--7--------6--7--7--------6--7--7--------6--7--7--------6--7--
D|--------9--------------9--------------9--------------9--------
A|--------------------------------------------------------------
E|--------------------------------------------------------------



E|--------------------------------------------------------------
B|--7--------------7--------------7--------------7--------------
G|-----4--6--7--4-----4--6--7--4-----4--6--7--4-----4--6--7--4--
D|--------------------------------------------------------------
A|--------------------------------------------------------------
E|--------------------------------------------------------------
http://www.guitartabcreator.com
Guitar Tab Creator is intended to store guitar tab created through the tool. It currently does not support in-line text editing. Any text you place in here will be lost. If you need to comment on your tab, please use the "Tab Notes" section located below.