E hArmonic Minor 4ths Ascending Pattern and Descending Pattern

(/) Slide Up  (\) Slide Down  (h) Hammer On  (p) Pull Off  (b) Bend (r) Release (v) Vibrato


E|---------------|---------------|----------------|---------------|--
B|---------------|---------------|----------------|---------------|--
G|------------8--|---------8--9--|------8--9--11--|--9--8---------|--
D|--7--9--10-----|--9--10--------|--10------------|--------10--9--|--
A|---------------|---------------|----------------|---------------|--
E|---------------|---------------|----------------|---------------|--



E|----------------|---------------|---------------|---------------|--
B|----------------|---------------|---------------|---------------|--
G|--11--9--8------|--9--8---------|--8------------|---------8--9--|--
D|------------10--|--------10--9--|-----10--9--7--|--9--10--------|--
A|----------------|---------------|---------------|---------------|--
E|----------------|---------------|---------------|---------------|--
http://www.guitartabcreator.com
Guitar Tab Creator is intended to store guitar tab created through the tool. It currently does not support in-line text editing. Any text you place in here will be lost. If you need to comment on your tab, please use the "Tab Notes" section located below.