Baroque Pedal Point Etude A-

(/) Slide Up  (\) Slide Down  (h) Hammer On  (p) Pull Off  (b) Bend (r) Release (v) Vibrato


E|--19--20--17--20--15--20------20--|--15--17--13--17--12--17------17--|--
B|--------------------------19------|--------------------------15------|--
G|----------------------------------|----------------------------------|--
D|----------------------------------|----------------------------------|--
A|----------------------------------|----------------------------------|--
E|----------------------------------|----------------------------------|--



E|--17--19--15--19--14--19------19--|--13--15--12--15--10--15------15--|--
B|--------------------------17------|--------------------------13------|--
G|----------------------------------|----------------------------------|--
D|----------------------------------|----------------------------------|--
A|----------------------------------|----------------------------------|--
E|----------------------------------|----------------------------------|--



E|--15--17--13--17--12--17------17--|--12--13--10--13--8--13------13--|--
B|--------------------------15------|-------------------------12------|--
G|----------------------------------|---------------------------------|--
D|----------------------------------|---------------------------------|--
A|----------------------------------|---------------------------------|--
E|----------------------------------|---------------------------------|--



E|--13--15--12--15--10--15------15--|--10--12--8--12--7--12------12--|--
B|--------------------------13------|------------------------10------|--
G|----------------------------------|--------------------------------|--
D|----------------------------------|--------------------------------|--
A|----------------------------------|--------------------------------|--
E|----------------------------------|--------------------------------|--



E|--12--13--10--13--8--13------13--|--|--8--10--7--10--5--10-----10--|--
B|-------------------------12------|--|-----------------------8------|--
G|---------------------------------|--|------------------------------|--
D|---------------------------------|--|------------------------------|--
A|---------------------------------|--|------------------------------|--
E|---------------------------------|--|------------------------------|--



E|--10--12--8--12--7--12------12-----12------12--|--
B|------------------------10------9------10------|--
G|-----------------------------------------------|--
D|-----------------------------------------------|--
A|-----------------------------------------------|--
E|-----------------------------------------------|--



E|--7--12--8--12--10--12--8--12--7--12------12--|--
B|--------------------------------------10------|--
G|----------------------------------------------|--
D|----------------------------------------------|--
A|----------------------------------------------|--
E|----------------------------------------------|--



E|--------------------|-----------------|-----------------|--
B|--9--10--12--9--10--|-----------------|-----------------|--
G|--------------------|-----------------|-----------------|--
D|--------------------|--6--7--9--6--7--|-----------------|--
A|--------------------|-----------------|-----------------|--
E|--------------------|-----------------|--4--5--7--4--5--|--
http://www.guitartabcreator.com
Guitar Tab Creator is intended to store guitar tab created through the tool. It currently does not support in-line text editing. Any text you place in here will be lost. If you need to comment on your tab, please use the "Tab Notes" section located below.