Alternat Picking Etude in E minor

(/) Slide Up  (\) Slide Down  (h) Hammer On  (p) Pull Off  (b) Bend (r) Release (v) Vibrato

E|--17--------------|--15--------------|--13--------------|--12--------------|--10-----------------
B|------18--17--18--|------17--15--17--|------15--13--15--|------13--12--13--|------12--10--12-----
G|------------------|------------------|------------------|------------------|---------------------
D|------------------|------------------|------------------|------------------|---------------------
A|------------------|------------------|------------------|------------------|---------------------
E|------------------|------------------|------------------|------------------|---------------------



E|--8-------------|--7-----------|--7-----------10-----------|--7-----------10-----------
B|-----10--8--10--|-----8--7--8--|-----8--7--8------8--7--8--|-----8--7--8------8--7--8--
G|----------------|--------------|---------------------------|---------------------------
D|----------------|--------------|---------------------------|---------------------------
A|----------------|--------------|---------------------------|---------------------------
E|----------------|--------------|---------------------------|---------------------------



E|--8-------------12-------------|--8-------------12-------------|--
B|-----10--8--10------10--8--10--|-----10--8--10------10--8--10--|--
G|-------------------------------|-------------------------------|--
D|-------------------------------|-------------------------------|--
A|-------------------------------|-------------------------------|--
E|-------------------------------|-------------------------------|--



E|--10--------------14--------------|--10--------------14--------------|--
B|------12--10--12------12--10--12--|------12--10--12------12--10--12--|--
G|----------------------------------|----------------------------------|--
D|----------------------------------|----------------------------------|--
A|----------------------------------|----------------------------------|--
E|----------------------------------|----------------------------------|--



E|--12--------------15--------------|--12--------------15--------------|--
B|------13--12--13------13--12--13--|------13--12--13------13--12--13--|--
G|----------------------------------|----------------------------------|--
D|----------------------------------|----------------------------------|--
A|----------------------------------|----------------------------------|--
E|----------------------------------|----------------------------------|--



E|--13--------------17--------------|--13--------------17--------------|--
B|------15--13--15------15--13--15--|------15--13--15------15--13--15--|--
G|----------------------------------|----------------------------------|--
D|----------------------------------|----------------------------------|--
A|----------------------------------|----------------------------------|--
E|----------------------------------|----------------------------------|--



E|--15--------------19--------------|--15--------------19--------------|--
B|------17--15--17------17--15--17--|------17--15--17------17--15--17--|--
G|----------------------------------|----------------------------------|--
D|----------------------------------|----------------------------------|--
A|----------------------------------|----------------------------------|--
E|----------------------------------|----------------------------------|--



E|--17--18------17--|----------------------------------|--
B|----------20------|--18--20--17--18------17----------|--
G|------------------|------------------19------18--19--|--
D|------------------|----------------------------------|--
A|------------------|----------------------------------|--
E|------------------|----------------------------------|--
http://www.guitartabcreator.com
Guitar Tab Creator is intended to store guitar tab created through the tool. It currently does not support in-line text editing. Any text you place in here will be lost. If you need to comment on your tab, please use the "Tab Notes" section located below.