Swing Gitan

(/) Slide Up  (\) Slide Down  (h) Hammer On  (p) Pull Off  (b) Bend (r) Release (v) Vibrato

E|---------|---------|---------|---------
B|----3----|---------|----3----|----3----
G|----3----|----6----|----5----|----3----
D|----2----|----5----|----4----|----2----
A|---------|----4----|----5----|---------
E|----3----|----5----|---------|----3----



E|---------|---------|---------|--------------
B|----6----|----3----|---------|----8----3----
G|----5----|----3----|----6----|----8----5----
D|----6----|----2----|----5----|----7----4----
A|---------|---------|----4----|----5----5----
E|----4----|----3----|----5----|----8---------



E|--
B|--
G|--
D|--
A|--
E|--
http://www.guitartabcreator.com
Guitar Tab Creator is intended to store guitar tab created through the tool. It currently does not support in-line text editing. Any text you place in here will be lost. If you need to comment on your tab, please use the "Tab Notes" section located below.