Sweet Sue

(/) Slide Up  (\) Slide Down  (h) Hammer On  (p) Pull Off  (b) Bend (r) Release (v) Vibrato
E|---------|---------|---------|---------
B|----5----|----5----|----5----|----5----
G|----5----|----4----|----5----|----4----
D|----4----|----5----|----4----|----5----
A|----5----|---------|----5----|---------
E|---------|----3----|---------|----3----



E|-------------------------|---------|---------
B|-------------------------|----5----|----8----
G|----10----9----8----7----|----5----|----8----
D|----9-----8----7----6----|----5----|----7----
A|----10----9----8----7----|---------|---------
E|-------------------------|----5----|----8----



E|-----|-----|--
B|--5--|--5--|--
G|--5--|--4--|--
D|--4--|--5--|--
A|--5--|-----|--
E|-----|--3--|--
http://www.guitartabcreator.com
Guitar Tab Creator is intended to store guitar tab created through the tool. It currently does not support in-line text editing. Any text you place in here will be lost. If you need to comment on your tab, please use the "Tab Notes" section located below.