paranoid verse

(/) Slide Up  (\) Slide Down  (h) Hammer On  (p) Pull Off  (b) Bend (r) Release (v) Vibrato

E|------------------------------------------------------------------
B|------------------------------------------------------------------
G|------------------------------------------------------------------
D|--13--13--13--13--13--13--13--13--13--13--13--13--13--13--13--13--
A|--13--13--13--13--13--13--13--13--13--13--13--13--13--13--13--13--
E|--12--12--12--12--12--12--12--12--12--12--12--12--12--12--12--12--



E|----------------------------------------------
B|----------------------------------------------
G|----------------------------------11----------
D|--11--11--11--11--11--11--11--11--11--11--13--
A|--11--11--11--11--11--11--11--11--10--11--13--
E|--10--10--10--10--10--10--10--10------10--12--
http://www.guitartabcreator.com
Guitar Tab Creator is intended to store guitar tab created through the tool. It currently does not support in-line text editing. Any text you place in here will be lost. If you need to comment on your tab, please use the "Tab Notes" section located below.