paranoid chorus

(/) Slide Up  (\) Slide Down  (h) Hammer On  (p) Pull Off  (b) Bend (r) Release (v) Vibrato


E|--------------------------------------------------------------------------------------------------
B|--------------------------------------------------------------------------------------------------
G|--------------------------------------------------------------------------------------------------
D|--13--13--13--13--13--13--13--13--13--13--13--13--13--13--13--13--11--11--11--11--11--11--11--11--
A|--13--13--13--13--13--13--13--13--13--13--13--13--13--13--13--13--11--11--11--11--11--11--11--11--
E|--12--12--12--12--12--12--12--12--12--12--12--12--12--12--12--12--10--10--10--10--10--10--10--10--



E|----------------------------------
B|----------------------------------
G|----------------------------------
D|--11--11--11--11--11--11--11--11--
A|--11--11--11--11--11--11--11--11--
E|--10--10--10--10--10--10--10--10--
http://www.guitartabcreator.com
Guitar Tab Creator is intended to store guitar tab created through the tool. It currently does not support in-line text editing. Any text you place in here will be lost. If you need to comment on your tab, please use the "Tab Notes" section located below.