Lost in Oblivion

(/) Slide Up  (\) Slide Down  (h) Hammer On  (p) Pull Off  (b) Bend (r) Release (v) Vibrato

E|---------------------------|--------------------------|--------------------------|--
B|---------------------------|--------------------------|--------------------------|--
G|---------------------------|--------------------------|--------------------------|--
D|---------------------------|--------------------------|--------4-----5--4-----4--|--
A|--------5-----5h7p5-----5--|--------4-----4h5p4-------|--------------------5-----|--
E|--9--9-----9---------9-----|--7--7-----7---------7----|--2--2-----2--------------|--



E|------------------------|--
B|------------------------|--
G|------------------------|--
D|------------------------|--
A|--------4-----4h5p4-----|--
E|--4--4-----4---------7--|--



E|--------------------------|--------------------------|--------------------------|-----
B|--------------------------|--------------------------|--------------------------|-----
G|--------------------------|--------------------------|--------------------------|-----
D|--------------------------|--------------------------|--------------------------|-----
A|--------4h5p4-------------|--4h5p4--4----4h5p4--7----|--------4h5p4-------------|-----
E|--0--0---------7----0--0--|--------------------------|--0--0---------7----0--0--|-----



E|-----------------------|----------------------|--
B|-----------------------|----------------------|--
G|--6h7--7h9--9h10--7h9--|----------------------|--
D|-----------------------|----------------------|--
A|-----------------------|--4h5--5h7--7h8--5h7--|--
E|-----------------------|----------------------|--



E|--------------------------|--------------------------|--------------------------|--
B|--------------------------|--------------------------|--------------------------|--
G|--------------------------|--------------------------|--------------------------|--
D|--------------------------|--------------------------|--------------------------|--
A|--------4h5p4-------------|--4h5p4--4----4h5p4-------|--------4h5p4-------------|--
E|--4--4---------7----4--4--|---------------------7----|--4--4---------7----4--4--|--



E|-----------------------|----------------------|--
B|-----------------------|----------------------|--
G|--6h7--7h9--9h10--9p7--|----------------------|--
D|-----------------------|----------------------|--
A|-----------------------|--4h5--5h7--7h8--7p5--|--
E|-----------------------|----------------------|--
http://www.guitartabcreator.com
Guitar Tab Creator is intended to store guitar tab created through the tool. It currently does not support in-line text editing. Any text you place in here will be lost. If you need to comment on your tab, please use the "Tab Notes" section located below.