Minuet at 12

(/) Slide Up  (\) Slide Down  (h) Hammer On  (p) Pull Off  (b) Bend (r) Release (v) Vibrato


E|----------------------|--------------|--12----------12--13--|--15----------|--
B|--15----------12--13--|--15----------|------13--15----------|--------------|--
G|------12--14----------|------12--12--|----------------------|------12--12--|--
D|----------------------|--------------|----------------------|--------------|--
A|----------------------|--------------|----------------------|--------------|--
E|----------------------|--------------|----------------------|--------------|--



E|----------------------|----------------------|--------------------------|----------------------|--
B|--13--15--13--12------|--12--13--12----------|--------------12----------|--15----------12--13--|--
G|------------------14--|--------------14--12--|------12--14------12--14--|------12--14----------|--
D|----------------------|----------------------|--16----------------------|----------------------|--
A|----------------------|----------------------|--------------------------|----------------------|--
E|----------------------|----------------------|--------------------------|----------------------|--



E|--------------|--12----------12--13--|--15----------|--------------------------|--
B|--15----------|------13--15----------|--------------|--13--15--13--12------12--|--
G|------12--12--|----------------------|------12--12--|------------------14------|--
D|--------------|----------------------|--------------|--------------------------|--
A|--------------|----------------------|--------------|--------------------------|--
E|--------------|----------------------|--------------|--------------------------|--



E|------------------------------------------------------------------|--
B|--13--15--13--12------12--13--12----------------------------------|--
G|------------------14--------------14--12--14--16--14--12------12--|--
D|----------------------------------------------------------16------|--
A|------------------------------------------------------------------|--
E|------------------------------------------------------------------|--



E|--19------17--19------17--|----------------------|--
B|------20----------20------|------17--19------20--|--
G|--------------------------|--19----------19------|--
D|--------------------------|----------------------|--
A|--------------------------|----------------------|--
E|--------------------------|----------------------|--



E|--12--14--15----------------------|------------------12--14--15--14--12--14--------------|--
B|--------------15--14--12--14------|------12--14--15------------------------------14--15--|--
G|------------------------------14--|--14--------------------------------------14----------|--
D|----------------------------------|------------------------------------------------------|--
A|----------------------------------|------------------------------------------------------|--
E|----------------------------------|------------------------------------------------------|--



E|------------------12--------------|----------------------------------|--
B|--15------------------------------|--15--13--12----------------------|--
G|------12------12------12------12--|--------------14--12------12--14--|--
D|----------16--------------16------|----------------------16----------|--
A|----------------------------------|----------------------------------|--
E|----------------------------------|----------------------------------|--



E|----------------------------------------------------------|--
B|----------------------12--13--12------12--15--------------|--
G|--------------12--14--------------13----------12------12--|--
D|--12--14--16--------------------------------------16------|--
A|----------------------------------------------------------|--
E|----------------------------------------------------------|--
http://www.guitartabcreator.com
Guitar Tab Creator is intended to store guitar tab created through the tool. It currently does not support in-line text editing. Any text you place in here will be lost. If you need to comment on your tab, please use the "Tab Notes" section located below.