Call My Name-Third Day (Lead)

(/) Slide Up  (\) Slide Down  (h) Hammer On  (p) Pull Off  (b) Bend (r) Release (v) Vibrato

Intro:
E|-----------------------------------------------------------------
B|--12h14p12--9--7h9p7--5--7h9p7--12h14p12--9--12--9--7--5--7h9p7--
G|-----------------------------------------------------------------
D|-----------------------------------------------------------------
A|-----------------------------------------------------------------
E|-----------------------------------------------------------------

Verse 1:

E|--------------------------------------------------------
B|--------5--------4-----------------5--------4--------2--
G|--------------4-----------1--------------4--------2-----
D|-----6-----4-----------2--------6-----4--------2--------
A|--6-----------------2--------6--------------------------
E|--------------------------------------------------------

Verse 2:

E|--12--11----------------------12--11--12--12/14--12--11--7h9------12--11-------------------------
B|----------12--9--7--5h7p5--4----------------------------------12----------12--9--7--5h7p5--4--5--
G|-------------------------------------------------------------------------------------------------
D|-------------------------------------------------------------------------------------------------
A|-------------------------------------------------------------------------------------------------
E|-------------------------------------------------------------------------------------------------


Solo:
E|------------------------------------------------------------------------14/16--14----------
B|---------------------12--9--10--9----------------------------12--9--12-------------16--12--
G|--11--11--13--14--9----------------11--9--11--11--13--14--9--------------------------------
D|-------------------------------------------------------------------------------------------
A|-------------------------------------------------------------------------------------------
E|-------------------------------------------------------------------------------------------



E|------------------------12-14-11---------------9-----12-------------------19b
B|---------------12----14----------12-------10-----9------12----16----19-16----
G|-11-11-13-14-9----13----------------11-13----9-----8-------11----16----------
D|-----------------------------------------------------------------------------
A|-----------------------------------------------------------------------------
E|-----------------------------------------------------------------------------
http://www.guitartabcreator.com
Guitar Tab Creator is intended to store guitar tab created through the tool. It currently does not support in-line text editing. Any text you place in here will be lost. If you need to comment on your tab, please use the "Tab Notes" section located below.