Never Too Late - Basics

(/) Slide Up  (\) Slide Down  (h) Hammer On  (p) Pull Off  (b) Bend (r) Release (v) Vibrato


E|--------------------------------------
B|--------------------------------------
G|--------------------------------------
D|--------10---------------10--8--7--0--
A|-----8------8---------0---------------
E|--8------------0----------------------



E|-------------------------------------------------------
B|-------------------------------------------------------
G|-------------------------------------------------------
D|--------10---------------10--8--7-----------10-----10--
A|-----8------8---------0------------8-----7------7--10--
E|--8------------0----------------------7------------10--



E|-----------------------------------------------
B|-----------------------------------------------
G|-----------------------------------------------
D|--0--0------8--8--8------7--7------10--10--10--
A|--0--0------8--8--8------7--7------10--10--10--
E|--0--0------8--8--8------7--7------10--10--10--



E|-------------------------------------------
B|-------------------------------------------
G|-------------------------------------------
D|--8--8------0--0--0------7--7------10------
A|--8--8------0--0--0------7--7------10------
E|--8--8------0--0--0------7--7------10------
http://www.guitartabcreator.com
Guitar Tab Creator is intended to store guitar tab created through the tool. It currently does not support in-line text editing. Any text you place in here will be lost. If you need to comment on your tab, please use the "Tab Notes" section located below.