Solo 1

(/) Slide Up  (\) Slide Down  (h) Hammer On  (p) Pull Off  (b) Bend (r) Release (v) Vibrato


E|-----------------------------------5--7--7h8p7--5h7p5------------------7------------------|--
B|--------------------------5--7--8----------------------8--7h8p7--5--------7--7h8p7--5-----|--
G|-----------------4--5--7--------------------------------------------8---------------------|--
D|--------4--5--7---------------------------------------------------------------------------|--
A|-----7------------------------------------------------------------------------------------|--
E|--7------------------------------------------------------------------------------------0--|--



E|----------------------------------------------|--------------------------------------------
B|----------------------------------------------|--------------------------------------------
G|-----------------------------------------2----|--------------------------------------------
D|-----2--4--4h5p4--2-------2--4--4h5p4p2-------|-----2--4--4h5p4--2-------2--4--4h5p4p2-----
A|--2--------------------2----------------------|--2--------------------2--------------------
E|----------------------------------------------|--------------------------------------------



E|-----------------|--
B|-----------3--5--|--
G|--2--4--5--------|--
D|-----------------|--
A|-----------------|--
E|-----------------|--
http://www.guitartabcreator.com
Guitar Tab Creator is intended to store guitar tab created through the tool. It currently does not support in-line text editing. Any text you place in here will be lost. If you need to comment on your tab, please use the "Tab Notes" section located below.