party life

(/) Slide Up  (\) Slide Down  (h) Hammer On  (p) Pull Off  (b) Bend (r) Release (v) Vibrato

Stave 1:

E|--------------------|--------------------|--------------------|--------------------|---------------
B|-9-9-9-x-12-12-12-x-|-16-16-16-x-7-7-7-x-|-9-9-9-x-12-12-12-x-|-16-16-16-x-7-7-7-x-|---------------
G|-8-8-8-x-11-11-11-x-|-15-15-15-x-6-6-6-x-|-8-8-8-x-11-11-11-x-|-15-15-15-x-6-6-6-x-|---------------
D|-6-6-6-x-9--9--9--x-|-13-13-13-x-4-4-4-x-|-6-6-6-x-9--9--9--x-|-13-13-13-x-4-4-4-x-|---------------
A|--------------------|--------------------|--------------------|--------------------|---------------
E|--------------------|--------------------|--------------------|--------------------|---------------

Stave 2:

E|--------------------|--------------------|--------------------|-----------------|---------
B|-9-9-9-x-12-12-12-x-|-16-16-16-x-7-7-7-x-|-9-9-9-x-12-12-12-x-|-7-7-7-7-7-7-7-7-|-9-9-9---
G|-8-8-8-x-11-11-11-x-|-15-15-15-x-6-6-6-x-|-8-8-8-x-11-11-11-x-|-6-6-6-6-6-6-6-6-|-8-8-8---
D|-6-6-6-x-9--9--9--x-|-13-13-13-x-4-4-4-x-|-6-6-6-x-9--9--9--x-|-4-4-4-4-4-4-4-4-|-6-6-6---
A|--------------------|--------------------|--------------------|-----------------|---------
E|--------------------|--------------------|--------------------|-----------------|---------

Stave 3:

E|-------------------------------
B|-13-x-13-x-13-13-x-13-13-13-13-
G|-13-x-13-x-13-13-x-13-13-13-13-
D|-13-x-13-x-13-13-x-13-13-13-13-
A|-11-x-11-x-11-11-x-11-11-11-11-
E|-------------------------------

http://www.guitartabcreator.com
Guitar Tab Creator is intended to store guitar tab created through the tool. It currently does not support in-line text editing. Any text you place in here will be lost. If you need to comment on your tab, please use the "Tab Notes" section located below.