Losing Control

(/) Slide Up  (\) Slide Down  (h) Hammer On  (p) Pull Off  (b) Bend (r) Release (v) Vibrato


E|-------------------------|--------------------------------------
B|-------------------------|--------------------------------------
G|-------------------------|--------------------------------------
D|-------------------------|--------------------------------------
A|-------------------------|--------------------------------------
E|-0-0/12-12-11--0-3-0/8-7-|-0-0/12-12-11-7h8p7-5h7p5-3h5p3-2h3p2-



E|-------------------------------------|-----------------
B|-------------------------------------|-----------------
G|-------------------------------------|-----------------
D|-------------------------------------|-----------------
A|-0-----0-----0-----0-----------------|-----------------
E|-0-0-0-0-0-0-0-0-0-0-0-0-3p0-5p0-1p0-|-6-5-3-0-5-3-2-0-



E|--------------------------|---------
B|--------------------------|---------
G|-7-7-7-7-9-10--7-7-7-7-10-|---------
D|-x-x-x-x-x-x---x-x-x-x-x--|---------
A|-5-5-5-5-7-8---5-5-5-5-8--|-8-7-5-3-
E|--------------------------|-8-7-5-3-



E|---------------------------------
B|---------------------------------
G|---------------------------------
D|---------5-5-5-5-----------------
A|-0-0-0-0-3-3-3-3-3-3-3-3-3-3-3-3-
E|-0-0-0-0---------3-3-3-3-2-2-2-2-



E|----------------------------------------|-----------------------------------------|-----
B|----------------------------------------|-----------------------------------------|-----
G|----------------------------------------|-----------------------------------------|-----
D|----------------------------------------|-----------------------------------------|-----
A|----------------------------------------|-----------------------------------------|-1-0-
E|-0-0-0--0-0-0---1-1-1-1-1-1--0--0--0--0-|-0-0-0--0-0-0---1-1-1-1-1-1--0--0--0--3v-|-1-0-



E|-----------------------------|--------------------------|-----------------
B|-----------------------------|--------------------------|-----------------
G|-----------------------------|--------------------------|-----------------
D|-----------------------------|--------------------------|-3-3-3-3-5-5-5-5-
A|-----------------------------|--------------------------|-3-3-3-3-5-5-5-5-
E|-0-0-0-0-1-1-1-0--/6-6-6\5-5-|-0-0-0-0-1-1-1-0--/6-6-5v-|-3-3-3-3-5-5-5-5-
http://www.guitartabcreator.com
Guitar Tab Creator is intended to store guitar tab created through the tool. It currently does not support in-line text editing. Any text you place in here will be lost. If you need to comment on your tab, please use the "Tab Notes" section located below.