Random shit

(/) Slide Up  (\) Slide Down  (h) Hammer On  (p) Pull Off  (b) Bend (r) Release (v) Vibrato

E|----------------------------------------------|------------------------------------------|--
B|----------------------------------------------|------------------------------------------|--
G|----------------------------------------------|------------------------------------------|--
D|----------------------------------------------|--0-----------0---------------------------|--
A|--------7--------5--------8--------7--------5h|--0-----------0--0--0----0--0----0--0--0--|--
E|--0--0-----0--0-----0--0-----0--0-----0--0----|--0--1/21--1--0--0--0----0--0----0--0--0--|--



E|-----------------------------|------------------------------------|--
B|-----------------------------|------------------------------------|--
G|-----------------------------|------------------------------------|--
D|-----------------------------|------------------------------------|--
A|--0--0----0--0----0--0--0----|--7--7--7--7----5--5----8--8--8--8--|--
E|--0--0----0--0----0--0--0----|--7--7--7--7----5--5----8--8--8--8--|--
http://www.guitartabcreator.com
Guitar Tab Creator is intended to store guitar tab created through the tool. It currently does not support in-line text editing. Any text you place in here will be lost. If you need to comment on your tab, please use the "Tab Notes" section located below.