oli 2

(/) Slide Up  (\) Slide Down  (h) Hammer On  (p) Pull Off  (b) Bend (r) Release (v) Vibrato
E|-----------0----------------------------------5--3/0--------0-----------------
B|--0--1--3---------------------------------------------1--3--------------------
G|--------------2h4p2p0--------0--2--4--2--4p2-------------------2--4--2--0-----
D|-----------------------2--2------------------------------------------------2--
A|------------------------------------------------------------------------------
E|------------------------------------------------------------------------------



E|-----------0-----------------------------5--5--2/3p0-------------------
B|--0--1--3-----------------------------0---------------3p1--------------
G|--------------2h4p2p0-----2--2--2--2-----------------------2--0--2-----
D|-----------------------2-----------------------------------------------
A|--------------------------------------------------------------------0--
E|-----------------------------------------------------------------------



E|--3/5--5--3--0-----0-----2/3p0--------------------------------0--------0--3--5--0--3-----0-----
B|----------------3-----3---------3--1--------------------1--3-----1--3-----------------3--------
G|--------------------------------------2--2--2--2--0--2-----------------------------------------
D|-----------------------------------------------------------------------------------------------
A|-----------------------------------------------------------------------------------------------
E|-----------------------------------------------------------------------------------------------



E|-----------------------------0--2/3p0-------------------
B|-----------------------1--3--------------3--1-----------
G|--2--2--2--2--0-----0--------------------------2--0--2--
D|-----------------2--------------------------------------
A|--------------------------------------------------------
E|--------------------------------------------------------
http://www.guitartabcreator.com
Guitar Tab Creator is intended to store guitar tab created through the tool. It currently does not support in-line text editing. Any text you place in here will be lost. If you need to comment on your tab, please use the "Tab Notes" section located below.