system shiftdown

(/) Slide Up  (\) Slide Down  (h) Hammer On  (p) Pull Off  (b) Bend (r) Release (v) Vibrato

Stave 1:

E|--------------------------------------------------------------------
B|--------------------------------------------------------------------
G|--------------------------------------------------------------------
D|--------------------------------------------------------------------
A|--------5-----7--7-----5-----7--7-----5-----7--7-----7--5--------5--
E|--0--0-----0--------0-----0--------0-----0--------5--------3--3-----

Stave 2:

E|--------------------------------------
B|--------------------------------------
G|---------------------------9----7--7--
D|----2----5------3--3--2----9----7--7--
A|----2----5------3--3--2----7----5--5--
E|----0----3------1--1--0---------------

Stave 3:

E|--------------------------------------------------
B|--------------------------------------------------
G|--------------------------------------------------
D|--------------------------------------------------
A|--------7--------5--------8--------8--------8--7--
E|--0--0-----0--0-----0--0-----0--0-----0--0--------

Stave 4:

E|---------------------------------------------------
B|---------------------------------------------------
G|---------------------------------------------------
D|---------------------------------------------------
A|--------10--------8--------8--------8--------8--7--
E|--0--0------0--0-----0--0-----0--0-----0--0--------

http://www.guitartabcreator.com
Guitar Tab Creator is intended to store guitar tab created through the tool. It currently does not support in-line text editing. Any text you place in here will be lost. If you need to comment on your tab, please use the "Tab Notes" section located below.