Fantom

(/) Slide Up  (\) Slide Down  (h) Hammer On  (p) Pull Off  (b) Bend (r) Release (v) Vibrato

Stave 1:

E|-----------------------0-------------------------------------------------------------------------
B|-----1--------1--------------1--------0h1--1--------------------------0--------------------------
G|--------2--------2--------------2-------------2-----2--------2--------------1--------1-----------
D|-----------2--------2--------------2-------------------0--------0--------------2--------2-----2--
A|--0-----------------------0----------------------2--------2--------2-----2--------2--------------
E|-------------------------------------------------------------------------------------------0-----

Stave 2:

E|--------------------------1-----------------------------------4-----------------------------------
B|-----------------------------1-----------------------------------4--------------------------------
G|-----2--------2-----------------2--------------------5--------------5-----------7--------8--------
D|--------3--------3-----3-----------3-----3-----5--------6--------------6-----8--------9-----------
A|-----------3--------3--------------------------------------6--------------------------------------
E|--1-----------------------------------1-----3-----4-----------------------6--------7--------------

http://www.guitartabcreator.com
Guitar Tab Creator is intended to store guitar tab created through the tool. It currently does not support in-line text editing. Any text you place in here will be lost. If you need to comment on your tab, please use the "Tab Notes" section located below.