Africa - Mike Massee CAPO 2

(/) Slide Up  (\) Slide Down  (h) Hammer On  (p) Pull Off  (b) Bend (r) Release (v) Vibrato
E|------------------------2----2----
B|------------------------3----3----
G|------------------------4----4----
D|------------------------4----4----
A|----5----5----5----4----2----2----
E|----3----3----3----2----0----0----



E|-----4--2--2--3--2--2--
B|--2--5--2--3--3--3--2--
G|--2--6--2--2--0--4--2--
D|--2--6--4--2--0--4--4--
A|--0--4--4--4--2--2--4--
E|--------2-----3-----2--



E|--------------2--2--------4--2--2--3--2--2--
B|--------------3--3--2--2--5--2--3--0--3--2--
G|--------------4--4--2--2--6--2--2--0--4--2--
D|--------------4--4--2--2--6--4--2--0--4--4--
A|--5--5--5--4--2--2--0--0--4--4--4--2--2--4--
E|--3--3--3--2-----------------2--2--3-----2--



E|--2--3-----2--2--0--0--3--2--0--0--3--2--
B|--3--0-----3--3--0--1--3--3--0--1--0--3--
G|--2--0-----4--4--0--0--0--2--0--0--0--2--
D|--2--0-----4--4--2--2--0--0--2--2--0--0--
A|--4--2-----2--2--2--3--2-----2--3--2-----
E|--2--3--2--------0--0--3-----0--0--3-----



E|--0--0--3--2--2--0--0--3--2--2--0--2--3-----------------2--
B|--0--1--0--3--3--0--1--0--3--3--0--3--0-----------------3--
G|--0--0--0--2--2--0--0--0--4--2--0--2--0-----------------4--
D|--2--2--0--0--0--2--2--0--4--0--2--0--0-----------------4--
A|--2--3--2-----2--2--3--2--2-----2-----2--5--5--5--4--4--2--
E|--0--0--3-----0--0--0--3--------0-----3--3--3--3--2--2-----
http://www.guitartabcreator.com
Guitar Tab Creator is intended to store guitar tab created through the tool. It currently does not support in-line text editing. Any text you place in here will be lost. If you need to comment on your tab, please use the "Tab Notes" section located below.