Your Grace Is Enough

(/) Slide Up  (\) Slide Down  (h) Hammer On  (p) Pull Off  (b) Bend (r) Release (v) Vibrato


E|-----------------------------------------------------------------------------------------------
B|-----------------------------------------------------------------------------------------------
G|--0--0--0--2--2--2--2--5--5--5--4--4--2--4--2----0--0--0--2--2--2--2--5--5--5--4--4--4----7----
D|-----------------------------------------------------------------------------------------------
A|-----------------------------------------------------------------------------------------------
E|-----------------------------------------------------------------------------------------------



E|--------------------------------------------------------------------------------------
B|--------------------------------------------------------------------------------------
G|--0----2---------0----2---------0----0----------0----2---------0----2---------0----0--
D|------------4--------------4------------------------------4--------------4------------
A|--------------------------------------------------------------------------------------
E|--------------------------------------------------------------------------------------



E|-------------------------------------------------------------------------------------------------
B|-------------------------------------------------------------------------------------------------
G|--0----2---------0----2---------0----0---------------------0----2---------0----2---------0----0--
D|------------4--------------4--------------4----2----0----------------4--------------4------------
A|-------------------------------------------------------------------------------------------------
E|-------------------------------------------------------------------------------------------------



E|------------------------------------------------------------------------------------------------
B|------------------------------------------------------------------------------------------------
G|--0--4--4----2----5--4----2----4--4----2----5--4----2----4--4----2----5----4----2--2----4----0--
D|------------------------------------------------------------------------------------------------
A|------------------------------------------------------------------------------------------------
E|------------------------------------------------------------------------------------------------



E|--------------------------------------------------------------------------------------
B|--3----3----1----0-----------3----3----1----0---------3----3----1----0-------1--0-----
G|--------------------2--------------------------0------------------------2----------0--
D|--------------------------------------------------------------------------------------
A|--------------------------------------------------------------------------------------
E|--------------------------------------------------------------------------------------
http://www.guitartabcreator.com
Guitar Tab Creator is intended to store guitar tab created through the tool. It currently does not support in-line text editing. Any text you place in here will be lost. If you need to comment on your tab, please use the "Tab Notes" section located below.