Wipeout

(/) Slide Up  (\) Slide Down  (h) Hammer On  (p) Pull Off  (b) Bend (r) Release (v) Vibrato


E|-----------------------------------------------------------------------------------------------
B|-----------------------------------------------------------------------------------------------
G|-----------------------------------------------------------------------------------------------
D|-----------------------------------------------------------------------------------------------
A|--1--2--3--3--3--1--------1--2--3--3--3--1--------1--2--3--3--3--1--------1--2--3--3--3--1-----
E|--------------------3--3--------------------3--3--------------------3--3--------------------3--



E|----------------------------------------------------------------------------------------------
B|----------------------------------------------------------------------------------------------
G|----------------------------------------------------------------------------------------------
D|--1--2--3--3--3--1--------1--2--3--3--3--1----------------------------------------------------
A|--------------------3--3--------------------3----1--2--3--3--3--1--------1--2--3--3--3--1-----
E|-------------------------------------------------------------------3--3--------------------3--



E|---------------------------------------------------------------------------------------------------
B|---------------------------------------------------------------------------------------------------
G|---------------------------------------------------------------------------------------------------
D|--3--4--5--5--5--3--0--0--5--3--3--3--1------------------------------------------------------------
A|-----------------------------------------3----1--2--3--3--3--1--------1----------------------------
E|----------------------------------------------------------------3--3-------3--3--3--3--3--3--3--3--



E|---------------------------------------------------------------------------------------------------
B|---------------------------------------------------------------------------------------------------
G|---------------------------------------------------------------------------------------------------
D|----------------------------------3----------------------------------------------------------------
A|--3----------------3---------------------------3------------------------------------------------3--
E|----------------------------------------------------------------3----------------1-----------------



E|--------------------------
B|--------------------------
G|--------------------------
D|--------------------------
A|--------------------------
E|--3--3--3--3--3--3--3--3--
http://www.guitartabcreator.com
Guitar Tab Creator is intended to store guitar tab created through the tool. It currently does not support in-line text editing. Any text you place in here will be lost. If you need to comment on your tab, please use the "Tab Notes" section located below.