Greensleeves/What Child Is This

(/) Slide Up  (\) Slide Down  (h) Hammer On  (p) Pull Off  (b) Bend (r) Release (v) Vibrato


E|--------------------------------------------------------------------------
B|-------------0----2--0----------------------------------------------------
G|-----0----2---------------2----------------------0------------------------
D|--2----------------------------4----0----2--4---------2--2--1--2--4-------
A|-----------------------------------------------------------------------2--
E|--------------------------------------------------------------------------



E|---------------------------------------------------------------------------------------
B|---------------0----2--0---------------------------------------------------------------
G|-----0------2---------------2--------------------0-------------------------------------
D|--2------------------------------4--0----2--4---------4--2----1-------1----2--------2--
A|-------------------------------------------------------------------4-------------------
E|---------------------------------------------------------------------------------------



E|-------------------------------------------------------------------------------
B|--3------3------2--0-----------------------------------------------------------
G|------------------------2------------------------0-----------------------------
D|-------------------------------4--0------2--4-----------2--2--1--2--4----1-----
A|----------------------------------------------------------------------------2--
E|-------------------------------------------------------------------------------



E|-------------------------------------------------------------------------------------------------
B|--3------------3------2--0-----------------------------------------------------------------------
G|------------------------------2----------------------0-------------------------------------------
D|-----------------------------------4--0------2--4---------4--2----1---------1------2----------2--
A|-------------------------------------------------------------------------4-----------------------
E|-------------------------------------------------------------------------------------------------
http://www.guitartabcreator.com
Guitar Tab Creator is intended to store guitar tab created through the tool. It currently does not support in-line text editing. Any text you place in here will be lost. If you need to comment on your tab, please use the "Tab Notes" section located below.