G Worship Licks

(/) Slide Up  (\) Slide Down  (h) Hammer On  (p) Pull Off  (b) Bend (r) Release (v) Vibrato


E|--------3--------------------3--------3--------
B|--0--1-----------------0--1-----0--1-----0--1--
G|-----------------------------------------------
D|-----------------------------------------------
A|-----------------------------------------------
E|-----------------------------------------------



E|--3------3------2------3--
B|--3------1------3------0--
G|--------------------------
D|--------------------------
A|--------------------------
E|--------------------------



E|--------10--------------------10--------10--------
B|--7--8------------------7--8------7--8------7--8--
G|--------------------------------------------------
D|--------------------------------------------------
A|--------------------------------------------------
E|--------------------------------------------------



E|--7------10------10--
B|--8------8-------7---
G|---------------------
D|---------------------
A|---------------------
E|---------------------



E|------------
B|--1------3--
G|--0------0--
D|--2------4--
A|------------
E|------------
http://www.guitartabcreator.com
Guitar Tab Creator is intended to store guitar tab created through the tool. It currently does not support in-line text editing. Any text you place in here will be lost. If you need to comment on your tab, please use the "Tab Notes" section located below.