G major tenths 5th/2nd

(/) Slide Up  (\) Slide Down  (h) Hammer On  (p) Pull Off  (b) Bend (r) Release (v) Vibrato


E|---------------------------------------------------------------
B|-----1---------3-------5-------7-------8-------10--------12----
G|---------------------------------------------------------------
D|---------------------------------------------------------------
A|--0---------2-------3-------5-------7-------9--------10--------
E|---------------------------------------------------------------



E|--------------------------------------------------------------------------------
B|--------1----------3----------5----------7----------8----------10-----------12--
G|-----0----------0----------0----------0----------0----------0------------0------
D|--------------------------------------------------------------------------------
A|--0----------2----------3----------5----------7----------9-----------10---------
E|--------------------------------------------------------------------------------
http://www.guitartabcreator.com
Guitar Tab Creator is intended to store guitar tab created through the tool. It currently does not support in-line text editing. Any text you place in here will be lost. If you need to comment on your tab, please use the "Tab Notes" section located below.