E Major Diatonic Tenths

(/) Slide Up  (\) Slide Down  (h) Hammer On  (p) Pull Off  (b) Bend (r) Release (v) Vibrato

E|--2------4------5------7------9------11----12------14--
B|-------------------------------------------------------
G|-------------------------------------------------------
D|--1------2------4------6------7------9-----11------13--
A|-------------------------------------------------------
E|-------------------------------------------------------



E|-------------------------------------------------------
B|--2------4------5------7------9----10------12------14--
G|-------------------------------------------------------
D|-------------------------------------------------------
A|--0------2------4------6------7----9-------11------12--
E|-------------------------------------------------------



E|--------------------------------------------------------
B|--------------------------------------------------------
G|--1------2------4------6------8------9------11------13--
D|--------------------------------------------------------
A|--------------------------------------------------------
E|--0------2------4------5------7------9------11------12--
http://www.guitartabcreator.com
Guitar Tab Creator is intended to store guitar tab created through the tool. It currently does not support in-line text editing. Any text you place in here will be lost. If you need to comment on your tab, please use the "Tab Notes" section located below.