Deck the Halls

(/) Slide Up  (\) Slide Down  (h) Hammer On  (p) Pull Off  (b) Bend (r) Release (v) Vibrato
E|---------------------------------------------------------------------------------------------
B|--3------1--0-----------0----------0--1-----0--------------------3------1--0-----------0-----
G|---------------2--0--2-----0----2--------2-------2--0-----0-------------------2--0--2-----0--
D|-------------------------------------------------------4-------------------------------------
A|---------------------------------------------------------------------------------------------
E|---------------------------------------------------------------------------------------------



E|------------------------------------------------------------------------------0--2--3----
B|-----0--1-----0---------------------------0--1-----0----1--3-----0--1--3---------------
G|--2--------2---------2--0-----0------2----------2-------------2---------------------------
D|---------------------------4-------------------------------------------------------------
A|-----------------------------------------------------------------------------------------
E|-----------------------------------------------------------------------------------------



E|--2----0-----------------------------------------0--0--0--0---------------------
B|------------3------3----1--0-----------0---------------------3------1--0--------
G|------------------------------2--0--2-----0-------------------------------2--0--
D|--------------------------------------------------------------------------------
A|--------------------------------------------------------------------------------
E|--------------------------------------------------------------------------------
http://www.guitartabcreator.com
Guitar Tab Creator is intended to store guitar tab created through the tool. It currently does not support in-line text editing. Any text you place in here will be lost. If you need to comment on your tab, please use the "Tab Notes" section located below.