D Major Sixths

(/) Slide Up  (\) Slide Down  (h) Hammer On  (p) Pull Off  (b) Bend (r) Release (v) Vibrato


E|--0------2------3------5------7------9------10------12--
B|--------------------------------------------------------
G|--0------2------4------6------7------9------11------12--
D|--------------------------------------------------------
A|--------------------------------------------------------
E|--------------------------------------------------------



E|--------------------------------------------------------
B|--0------2------3------5------7------8------10------12--
G|--------------------------------------------------------
D|--0------2------4------5------7------9------11------12--
A|--------------------------------------------------------
E|--------------------------------------------------------



E|-------------------------------------------------------
B|-------------------------------------------------------
G|--0----2------4------6------7------9-------11------12--
D|-------------------------------------------------------
A|--2----4------5------7------9------10------12------14--
E|-------------------------------------------------------



E|---------------------------------------------------------
B|---------------------------------------------------------
G|---------------------------------------------------------
D|--0------2------4------5------7------9-------11------12--
A|---------------------------------------------------------
E|--2------3------5------7------9------11------12------14--
http://www.guitartabcreator.com
Guitar Tab Creator is intended to store guitar tab created through the tool. It currently does not support in-line text editing. Any text you place in here will be lost. If you need to comment on your tab, please use the "Tab Notes" section located below.