C Major Diatonic 10ths

(/) Slide Up  (\) Slide Down  (h) Hammer On  (p) Pull Off  (b) Bend (r) Release (v) Vibrato


E|--1------3------5------7------8------10------12------13--
B|---------------------------------------------------------
G|---------------------------------------------------------
D|--0------2------3------5------7------9-------10------12--
A|---------------------------------------------------------
E|---------------------------------------------------------



E|---------------------------------------------------------
B|--1------3------5------6------8------10------12------13--
G|---------------------------------------------------------
D|---------------------------------------------------------
A|--0------2------3------5------7------8-------10------12--
E|---------------------------------------------------------



E|--------------------------------------------------------
B|--------------------------------------------------------
G|--0------2------4------5------7------9------10------12--
D|--------------------------------------------------------
A|--------------------------------------------------------
E|--0------1------3------5------7------8------10------12--
http://www.guitartabcreator.com
Guitar Tab Creator is intended to store guitar tab created through the tool. It currently does not support in-line text editing. Any text you place in here will be lost. If you need to comment on your tab, please use the "Tab Notes" section located below.